» » »

Hail The Villain, Mission Control Tabs (ver.1)

Artists:  A B C D E F G H I J K L M N O P Q R S T U V W X Y Z # 

Mission Control Tabs (ver.1)

Hail The Villain Tabs
 Rating:
4/5 (4 votes)
Mission Control lessons Tabs too difficult? Try these video lessons and learn fast
1
                band: hail the villain
tuning: Drop Bb

Intro/chorus(lead)...your gonna have to play with the song to know the right rythum and 
how many times to play each note.
B-----------------------------|
F#-6--9---10--9--11-----------|
B--x--x---x---x--x------------|
E--8--11--12--11-13-----------|
G#----------------------------|
C#----------------------------|

Inrto/chorus(rythum)
B--1-4------------------|
F#-1-4------------------|
B--1-4------------------|
E-----------------------|
G#----------------------|
C#----------------------|

Verse(both guitars)gotta mess around with the verse and try to get it to work if your in 
the right tuning and find out the way it goes its dead on.
B--1-1-1-1111111-|-3-6-7------------------|
F#-1-1-1-1111111-|-3-6-7------------------|
B--1-1-1-1111111-|------------------- <---|(this is right before the chorus)
E----------------|------------------------|
G#---------------|------------------------|
C#---------------|------------------------|

Bridge(grt 1)
B--6-9------------------------|
F#-6-9------------------------|
B--6-9------------------------|
E--8-11-----------------------|
G#----------------------------|
C#----------------------------|

Bridge(gtr 2)
B--1-4-----------------|
F#-1-4-----------------|
B--1-4-----------------|
E----------------------|
G#---------------------|
C#---------------------|
Chorus again

Outro ...aslo gonna have to play around with to get it exact
B----------------------|
F#-3-4-3-4-3-4---------|
B----------------------|
E----------------------|
G#---------------------|
C#---------------------|
            
Submit corrections

comments powered by Disqus
↑ Back to top | Hail The Villain Tabs for Mission Control. Lyrics for acoustic guitar and electric guitar. 1 Tablatures and chords are parodies/interpretations of the original songs. You may use it for private study, scholarship, research or language learning purposes only