» » »

H2o, Unconditional Bass tabs (ver.1)

Artists:  A B C D E F G H I J K L M N O P Q R S T U V W X Y Z # 

Unconditional Bass tabs (ver.1)

H2o Tabs
Rating:
0/5 (0 votes)
Unconditional lessons Tabs too difficult? Try these video lessons and learn fast
                Band: H20 

Please Rate

Intro (0:03)

G|-----------------------------------------|
D|-3-2-0-2-------------------------3-2-0-2-| 
A|---------33333333------------------------|
E|-----------------3333333311111111--------|

Verse (0:08)

G|----------------------------------|
D|----------------------------------|
A|-33333333-------------------------|
E|---------333333331111111111111111-|

G|----------------------------------|
D|-------------------------3-2-0-2--|
A|-33333333-------------------------|
E|---------3333333311111111---------|

Pre-chorus (0:18)

G|----------------------------------|
D|----------------------------------|
A|-3333333355555555-----------------|
E|-----------------1111111133333333-|


G|----------------------------------|
D|---------555555553333333333333333-|
A|-33333333-------------------------|
E|----------------------------------|

Chorus (0:28)

G|----------------------------------|
D|----------------------------------|
A|-3333333355555555-----------------| x3
E|-----------------1111111133333333-|

G|--------------------------------------------------|
D|--------------------------------------------------|
A|-33333333-----------------------------------------|
E|---------3333333311111111111111113333333333333333-|

Pre-verse (0:49)

G|----------------------------------|
D|-------------------------3-2-0-2--|
A|-33333333-------------------------|
E|---------3333333311111111---------|

Verse 2 (0:54)

G|----------------------------------|
D|----------------------------------|
A|-33333333-------------------------|
E|---------333333331111111111111111-|

G|----------------------------------|
D|-------------------------3-2-0-2--|
A|-33333333-------------------------|
E|---------3333333311111111---------|

Pre-chorus 2 (1:04)

G|----------------------------------|
D|----------------------------------|
A|-3333333355555555-----------------|
E|-----------------1111111133333333-|

G|----------------------------------|
D|----------------------------------|
A|-33333333-------------------------|
E|---------33333333111111113~-------|

Chorus 2 (1:14)

G|----------------------------------|
D|----------------------------------|
A|-3333333355555555-----------------| x3
E|-----------------1111111133333333-|

G|--------------------------------------------------|
D|--------------------------------------------------|
A|-33333333-----------------------------------------|
E|---------3333333311111111111111113333333333333333-|


Bridge (1:35)

G|----------------------------------|
D|----------------------------------| 
A|-3-3-----3-33----3-3--------------|
E|-------------------------11111111-|

G|----------------------------------|
D|----------------------------------| 
A|-55555555-------------------------| x2
E|---------555555553333333333333333-|

G|----------------------------------|
D|----------------------------------| 
A|-5555555577777777-----------------|
E|-----------------3333333355555555-|

G|----------------------------------|
D|----------------------------------| 
A|-55555555-------------------------|
E|---------555555553333333333333333-|

Final Chorus (2:00)

G|----------------------------------|
D|----------------------------------|
A|-3333333355555555-----------------| x3
E|-----------------1111111133333333-|

G|----------------------------------------------------|
D|----------------------------------------------------|
A|-33333333----------------------------------------3~-|
E|---------3333333311111111111111113333333333333333---|
            
Submit corrections

comments powered by Disqus
↑ Back to top | H2o Bass for Unconditional. Lyrics for acoustic guitar and electric guitar. Tablatures and chords are parodies/interpretations of the original songs. You may use it for private study, scholarship, research or language learning purposes only