» » »

What Happened? Bass tabs (ver.1)

Artists:  A B C D E F G H I J K L M N O P Q R S T U V W X Y Z # 

What Happened? Bass tabs (ver.1)

H2o
Rating:
0/5 (0 votes)

Hard to play? Try these video lessons and learn fast.
                Band: H2O

Great Song

Please rate!

Intro 0:00

G|----------------------------------|
D|-----0000----0000----0000---------| 
A|-2222----2222----2222----2--------|
E|----------------------------------|

Verse 0:05

G|----------------------------------|
D|-----0000-------------------------| 
A|-2222----0000----2222----0000-----| x2
E|-------------2222----0000----2222-|

Pre-chorus 0:17

G|----------------------------------|
D|-----0000-------------------------| 
A|-2222----0000----2222----0000-----|
E|-------------2222----0000----2222-|

G|--------------------------------------------------|
D|-----0000-----------------------------------------| 
A|-2222----0000--------------------0000000000000000-|
E|-------------22223333333333333333-----------------|

Chorus 0:31

G|------------------------------------|
D|------------------00000000000000000-|
A|-22222222222222222------------------|
E|------------------------------------|

G|--------------------------------|
D|--------------------------------| 
A|-000000000000000020-2-0-020-2-0-|
E|-------------------0-------0----|

G|------------------------------------|
D|------------------------------------|
A|-2222222222222222200000000000000000-|
E|------------------------------------|

G|--------------------------------|
D|-0000000000000000---------------| 
A|-----------------20-2-0-020-2-0-|
E|-------------------0-------0----|

Repeat: 

Verse 0:56
Pre-chorus 1:08
Chorus 1:23

Then:

Bridge (feat. matt skiba) 1:49

G|------------------------------------------------------------------|
D|------------------------------------------------------------------|
A|-----------------7777777777777777----------------4444444444444444-|
E|-4444444444444444----------------7777777777777767-----------------|

G|------------------------------------------------------------------|
D|------------------------------------------------------------------|
A|-----------------7777777777777777----------------4444444466667777-|
E|-4444444444444444----------------7777777777777777-----------------|

G|----------------|
D|----------------| 
A|-20-2-0-020-2-0-| x2
E|---0-------0----|

Repeat:

Chorus 2:20

Then:
 
Ending 2:44

G|----------------------------|
D|-----0000----0000----0000---| 
A|-2222----2222----2222----2\-|
E|----------------------------|
            
Hard to play? Try these video lessons and learn fast. | Correct




comments powered by Disqus
↑ Back to top | Tablatures and chords are parodies/interpretations of the original songs. You may use it for private study, scholarship, research or language learning purposes only