» » »

Another Reason Tabs (ver.1)

Artists:  A B C D E F G H I J K L M N O P Q R S T U V W X Y Z # 

Another Reason Tabs (ver.1)

H2o
Rating:
0/5 (0 votes)

Hard to play? Try these video lessons and learn fast.
                H2o, ang banda ng BIL

intro

e|--------x--------x--------x-------x---------------------------|
b|--------x--------x--------x-------x---------------------------|
g|-------4---------x--------7-------x-------------------------2x|
d|-----4----------5------7---------7----------------------------|
a|---2----------5------5----------7-----------------------------|
e|------------3-----------------55------------------------------|

intro 2

e|--------------------------------------------------------------|
b|--------------------------------------------------------------|
g|---44444444----------77777777---------------------------------|
d|---44444444-55555555-77777777-77777777------------------------|
a|---22222222-55555555-55555555-77777777------------------------|
e|------------33333333----------55555555------------------------|

verse 


e|--------x--------x--------x-------x---------------------------|
b|--------x--------x--------x-------x---------------------------|
g|-------4---------x--------7-------x-----6p7-----------------4x|
d|-----4----------5------7---------7----------7/9---------------|
a|---2----------5------5----------7-----------------------------|
e|------------3-----------------55------------------------------|

chorus:

e|-----------------------------------------------|
b|-----------------------------------------------|
g|---444-----777---------------------------------|
d|---444-555-777-777----------------------4x-----|
a|---222-555-555-777-----------------------------|
e|-------333-----555-----------------------------|

repeat 2x
repeat verse
repeat chorus

ADLIB:

e|--------------------------------------------------------------|
b|--------------------------------------------------------------|
g|--------------------------------------------------------------|
d|----9--12\11-11-14\12-12 16\14-12-12-11-11---7-7/9------------|
a|--------------------------------------------------------------|
e|--------------------------------------------------------------|


repeat lyrics of verse

e|--------------------------------------------------------------|
b|--------------------------------------------------------------|
g|---44-----------77--------------------------------------------|
d|---44----55-----77---77--------------------3x-----------------|
a|--2------55----5-----77---------------------------------------|
e|-------3------------5-----------------------------------------|

I don't know where to find some love.....(drum)

e|-----------------------------------------------|
b|-----------------------------------------------|
g|---444-----777---------------------------------|
d|---444-555-777-777----------------------4x-----|
a|---222-555-555-777-----------------------------|
e|-------333-----555-----------------------------|





| /  slide up
| \  slide down
| h  hammer-on
| p  pull-off
| ~  vibrato
| +  harmonic
| x  Mute note
            
Hard to play? Try these video lessons and learn fast. | Correct




comments powered by Disqus
↑ Back to top | Tablatures and chords are parodies/interpretations of the original songs. You may use it for private study, scholarship, research or language learning purposes only