>
 >
You Could Be Mine

You Could Be Mine Guitar Tabs

Guns N Roses - You Could Be Mine chords, tabs, tablatures, lyrics

Guitar lessons | Add/correct | Request | Top 50 tabs Artists:  A B C D E F G H I J K L M N O P Q R S T U V W X Y Z 0-9

You Could Be Mine Guitar Tabs – Guns N Roses

CD, Sheet music, Poster

Do you like You Could Be Mine? Share with your friends now
TabsTabs v2Tabs v3
[ Article crossposted from alt.rock-n-roll.metal.gnr ]
[ Author was Brad ]
                                  
				  You Could Be Mine
                                        G-n-R

------...                                |                               |
------...                                |                               | 
------...                                |                               |    
------...                                |                               |
------...                                |                               |
--12-12-12-12-12-12-12-12-9-9-9-9-9-9-7-7|7-7-7-7-7-7-7-7-5-5-4-4-3-3-3-3|

----14---    Then do some funky feedback with -------------
----14---                                     -------------
----14---                                     ------2------
---------                                     ------2------ 
---------                                     -------------
---------                                     -------------

1/4B     p                                 1/2    p
4-----4-----2------------2---------------2-----2-----0-------------3-----------------
4-----4-----2------------2---------------2-----2-----0-------------------------------
-------------------4-----2-----------------------------------2-----------------------
|------Lick 1----------------|          |------Lick 2----------------|

bend both notes.

repeat lick 1 twice    repeat lick 2 twice

repeat lick 1 twice    repeat lick 2 once

-----3--
-----3--
--2-----
--------   (then repeat this 5 times)
--------
--------


Now we have about 4 measures of powerchords ect.
Listen to the song to see how the timing goes(That goes for this whole work)
-----------
-----------
-----------7------9
-----9-----9------9
-----7-----7------7

Then the main riff that is used through out the chorus and verses is this:

---2--4--2--4--2------------------------------------2--4--2--4--2---------------------
---2--4--2--4--2--4--2---------------4--2--4--2--4--2--4--2--2--2--4--2---------------
------------------4--2--4------------4--2--4--2--4-----------------4--2--4------------
------------------------2------------------------------------------------2------------
A couple people wanted the solo so here it is:

Solo:You could be mine
another reason to cry---            1/2    1/2 hold---|         
-------------------------------9-----9-----9--------9--(9)p7---9--7--------
-------------------------------9-----9-----9--------9--(9)p7---9--7--------
------------------------(9)-9-----9---------------------------------9--7--9~~
                       1/2
---7--9--9--9--7--9-----9--------------------7-----------------------------
---7--9--9--9--7--9--7--9----------7h9--9----7--9p7s6---7--6--7--6h7p6----6
---------------------7--------------------7-----------------------------9--
                            1/2 1/2~~           1/2     1/2 2(1/2)       F~~
--6----------------------------------------------------------------------10
9----9--9--7-----9---7------------------------7-----------------------9----
--------------9----9---9--8--8---7----(7)p5---7--5-------------------------
--------------------------------------------7-------7--7--10--7---(7)s-----
                1/2
10------7-------10---x--------10--9h10p9p7-----9-----7h9p7------10-------10
10~~~~~~--10p7-------x--10p7---------------10----10---------10-----8s12----
        F(ull)
--------12-----10--------14-------------17~~~-14--17------------------14---
12--10------------12--10-----17--14------------------14--17---17~~~~~~---17
-------------------------------------16------------------------------------
                                                          F        F     F
----17--14-----------------14-------17-----17---14--17----17------17----17-
-14--------17p14--17~~~~~-----17p14----14--------------14------------------
1/2                      While you're breakin down my       back an' I been
17------16-----------------------------------------------------------------
------------16--14------------------------14s16-------------16~~~~~~~~~~~~~
--------------------16p15p14--122--14--12----------------------------------





 matter how we maek it cause it always
--7------------------------------------------------------------------------
--7------------------------------------------------------------------------
--7-----------------------------7(harmonic)--------------------------------
--5------------------------------------------------------------------------
I     said    you                              could       be
-------------------------10-------------------------10---------------------
9s11--11s14---11-----11------11----------------11-------11-----------------
---------------------------------9(full)p7---------------------------------
7s9---9s12----------------------------------9---------------------9--9-----
you                               should  be         you
--------------10------------------------------------------10---------------
--------11---------11---11----------------------------11------11------11---
-----------------------------9---------------------------------------------
9--9----------------------------9----------------------------------9------9
could              be                   mine
-------14--16--14--16--14--------------------------------------------------
--11---14--16--14--16--14--------------------------------------------------
-----------------------------16----14--16~~~~~~----------------------------





Comments


Popular Guns N Roses tabs & chords
Dont Damn Me Bass Tabs
Crash Diet 1 Tabs
Get In The Ring Tabs
My Michelle 3 Tabs
Once In A Million Tabs
Right Next Door To Hell Tabs
Sweet Child O Mine With Lyrics Tabs
You Could Be Mine 1 Tabs
Youe Crazy Tabs
Black Leather Ukulele


Song lyrics



↑ Back to top | Tablatures and chords are parodies/interpretations of the original songs. You may use it for private study, scholarship, research or language learning purposes only
© 2014 AZChords.com Contact us | Privacy policy | DMCA | Add/correct tabs | Request tabs | Top 50 tabs