» » »

Used To Love Her Tabs (ver.3)

Artists:  A B C D E F G H I J K L M N O P Q R S T U V W X Y Z # 

Used To Love Her Tabs (ver.3)

Guns N Roses
Rating:
0/5 (0 votes)

Hard to play? Try these video lessons and learn fast.
                (Live)
This is my best attempt at tabbing the solo from Used to Love Her from the late night 
show in 1988.

Heres a link to the show, the solo starts around 1:32.


Tuning: STANDARD (for some reason they didn't tune down for this show)

Spacing of the tab isn't accurate with timing.

(Not sure about the beginning)
|----------------------------------------------------------------10-----------|
|--12b(1/4)---x---x---12-----12b(1/4)---x---x---12-------------------10---13b-|
|--12b(1/4)---x---x---12-----12b(1/4)---x---x---12---10----12b----------------|
|-----------------------------------------------------------------------------|
|-----------------------------------------------------------------------------|
|-----------------------------------------------------------------------------|


|---10--------------------------------------------------------------------------|
|---------13---10------------------------------------------10-------------------|
|------------------12rpb10------12h13p12p10--13---12h13------13--x--10----------|
|---------------------------12--------------------------------------------------|
|-------------------------------------------------------------------------------|
|-------------------------------------------------------------------------------|

|-------------------------------------------------------------------------------|
|------------------------------------------------12-----------------------------|
|--12p10------------10--11---12---10--11--------12------10--11------10----------|
|----------12---12--------------------------12-------12----------12-------------|
|-------------------------------------------------------------------------------|
|-------------------------------------------------------------------------------|

|--13----10-----10------13fb--13---10--------13------12h13p12---------------10----|
|--13fb------13-----13-------------------13------13-------------13p10-13p10-------|
|---------------------------------------------------------------------------------|
|---------------------------------------------------------------------------------|
|---------------------------------------------------------------------------------|
|---------------------------------------------------------------------------------|

|---------13------15----13--14------------15fb-15fb-15-14-13-------15--15---------|
|-13s15-------15-----15---------15---13-----------------------15fb----------------|
|---------------------------------------------------------------------------------|
|---------------------------------------------------------------------------------|
|---------------------------------------------------------------------------------|
|---------------------------------------------------------------------------------|

                        (He plays this d-note like 10 times then..)
|-----------------------------------------------------------------------------|
|---15rbp13--15----15~---15------------------15b(1.5)---------13--------------|
|-------------------------------------------------------12fb-----12rbp10------|
|-------------------------------------------------------------------------12--|
|-----------------------------------------------------------------------------|
|-----------------------------------------------------------------------------|

|----------------------------------------------------------------------------|
|--12---10---------------10--------------------------------------------------|
|--12---10--10h11p10s7--10p7----------7------7---------7---------------------|
|-------------------------------7---9------9------7h9------------------------|
|----------------------------------------------------------------------------|
|----------------------------------------------------------------------------|


(Not sure about this part)
|----------------------------------------------------------------------------------|
|----------------------------------------------------------------------------------|
|-7------7s5s4---7--4--5---4h5p4s2---4---------------------------------------------|
|----9------------------------------------??----4h5----5-----4p2-------------------|
|---------------------------------------------------5-----5------4p2---------------|
|----------------------------------------------------------------------------------|

|------------------------------------------------------------------------------------|
|-----------------------------2----5p2---2---------2-----5p2----2--------------------|
|------------------------2h4----4------4-----2h4------4------4-----------------------|
|-------2----4p2---------------------------------------------------------------------|
|--2h4----4-------4p2----------------------------------------------------------------|
|------------------------------------------------------------------------------------|

|-------5------------------------------2-------------------------------------------|
|---5fb---5rb--------3-----------3-----3-------------------------------------------|
|--------------2--4----4---2--4-------2--------------------------------------------|
|-------------------------------------0--------------------------------------------|
|----------------------------------------------------------------------------------|
|----------------------------------------------------------------------------------|
            
Hard to play? Try these video lessons and learn fast. | Correct




comments powered by Disqus
↑ Back to top | Tablatures and chords are parodies/interpretations of the original songs. You may use it for private study, scholarship, research or language learning purposes only