» » »

Guns N Roses, This I Love Bass tabs (ver.1)

Artists:  A B C D E F G H I J K L M N O P Q R S T U V W X Y Z # 

This I Love Bass tabs (ver.1)

Guns N Roses Tabs
 Rating:
4/5 (4 votes)
This I Love lessons Tabs too difficult? Try these video lessons and learn fast
                                      This I Love                       


                                           Guns n' Roses
Tommy Stinson - Bass



      W                   W                 
F#||-------------------|-------------------|
C#||-------------------|-------------------|
G#||-------------------|-------------------|
C#||-------------------|-------------------|


  W                   W                 
-------------------|-------------------|
-------------------|-------------------|
-------------------|-------------------|
-------------------|-------------------|


  W                   W                 
-------------------|-------------------|
-------------------|-------------------|
-------------------|-------------------|
-------------------|-------------------|


  W                   W                 
-------------------|-------------------|
-------------------|-------------------|
-------------------|-------------------|
-------------------|-------------------|


  W                   W                 
-------------------|-------------------|
-------------------|-------------------|
-------------------|-------------------|
-------------------|-------------------|


  W                   W                 
-------------------|-------------------|
-------------------|-------------------|
-------------------|-------------------|
-------------------|-------------------|


                      Play Along..      
  W                   W                 
-------------------|-------------------|
-------------------|-------------------|
-------------------|--0----------------|
-------------------|-------------------|


  W                   W                 
-------------------|-------------------|
-------------------|-------------------|
-------------------|-------------------|
--3----------------|--0----------------|


  W                   W                 
-------------------|-------------------|
-------------------|-------------------|
-------------------|--0----------------|
--2----------------|-------------------|


  W                   W                 
-------------------|-------------------|
-------------------|-------------------|
-------------------|-------------------|
--3----------------|--0----------------|


  W                   W                 
-------------------|-------------------|
-------------------|-------------------|
-------------------|--0----------------|
--2----------------|-------------------|


  W                   W                 
-------------------|-------------------|
-------------------|-------------------|
-------------------|-------------------|
--3----------------|--0----------------|


  W                   W                 
-------------------|-------------------|
-------------------|-------------------|
-------------------|--0----------------|
--2----------------|-------------------|


  W                   W                 
-------------------|-------------------|
-------------------|-------------------|
-------------------|-------------------|
--3----------------|--0----------------|


  W                   W                 
-------------------|-------------------|
-------------------|-------------------|
-------------------|--0----------------|
--2----------------|-------------------|


  W                   W                 
-------------------|-------------------|
-------------------|-------------------|
-------------------|-------------------|
--3----------------|--0----------------|


  W                   W                 
-------------------|-------------------|
-------------------|-------------------|
-------------------|-------------------|
--2----------------|--2----------------|


  W                   W                 
-------------------|-------------------|
-------------------|-------------------|
--0----------------|-------------------|
-------------------|--3----------------|


  W                   W                 
-------------------|-------------------|
-------------------|-------------------|
-------------------|-------------------|
--0----------------|--2----------------|


  W                   W                 
-------------------|-------------------|
-------------------|-------------------|
--0----------------|-------------------|
-------------------|--3----------------|


  W                   W                 
-------------------|-------------------|
-------------------|-------------------|
-------------------|-------------------|
--0----------------|--2----------------|


  W                   W                 
-------------------|-------------------|
-------------------|-------------------|
--0----------------|-------------------|
-------------------|--3----------------|


  W                   W                 
-------------------|-------------------|
-------------------|-------------------|
-------------------|-------------------|
--0----------------|--2----------------|


  W                   W                 
-------------------|-------------------|
-------------------|-------------------|
--0----------------|-------------------|
-------------------|--3----------------|


  W                   W                 
-------------------|-------------------|
-------------------|-------------------|
-------------------|-------------------|
--0----------------|--2----------------|


  W                   W                 
-------------------|-------------------|
-------------------|-------------------|
--0----------------|-------------------|
-------------------|--3----------------|


  W                   W                 
-------------------|-------------------|
-------------------|-------------------|
-------------------|-------------------|
--0----------------|--2----------------|


  W                   W                 
-------------------|-------------------|
-------------------|-------------------|
--0----------------|-------------------|
-------------------|--3----------------|


  W                   W                 
-------------------|-------------------|
-------------------|-------------------|
-------------------|-------------------|
--0----------------|--2----------------|


  W                   W                 
-------------------|-------------------|
-------------------|-------------------|
-------------------|--0----------------|
--2----------------|-------------------|


  W                   W                 
-------------------|-------------------|
-------------------|-------------------|
-------------------|-------------------|
--3----------------|--0----------------|


  W                   W                 
-------------------|-------------------|
-------------------|-------------------|
-------------------|--0----------------|
--2----------------|-------------------|


  W                   W                 
-------------------|-------------------|
-------------------|-------------------|
-------------------|-------------------|
--3----------------|--0----------------|


  W                   W                 
-------------------|-------------------|
-------------------|-------------------|
-------------------|--0----------------|
--2----------------|-------------------|


  W                   W                 
-------------------|-------------------|
-------------------|-------------------|
-------------------|-------------------|
--3----------------|--0----------------|


  W                   W                 
-------------------|-------------------|
-------------------|-------------------|
-------------------|--0----------------|
--2----------------|-------------------|


  W                   W                 
-------------------|-------------------|
-------------------|-------------------|
-------------------|-------------------|
--3----------------|--0----------------|


  W                   W                 
-------------------|-------------------|
-------------------|-------------------|
-------------------|-------------------|
--2----------------|--2----------------|


  BASS !!                               
  W                   W                 
-------------------|-------------------|
-------------------|-------------------|
-------------------|-------------------|
--3----------------|--0----------------|


  W                   W                 
-------------------|-------------------|
-------------------|-------------------|
-------------------|-------------------|
--2----------------|--2----------------|


  W                   W                 
-------------------|-------------------|
-------------------|-------------------|
-------------------|-------------------|
--3----------------|--0----------------|


  W                   W                 
-------------------|-------------------|
-------------------|-------------------|
-------------------|-------------------|
--2----------------|--2----------------|


  W                   W                 
-------------------|-------------------|
-------------------|-------------------|
-------------------|-------------------|
--3----------------|--0----------------|


  W                   W                 
-------------------|-------------------|
-------------------|-------------------|
-------------------|-------------------|
--2----------------|--2----------------|


  W                   W                 
-------------------|-------------------|
-------------------|-------------------|
-------------------|-------------------|
--3----------------|--0----------------|


  W                   W                 
-------------------|-------------------|
-------------------|-------------------|
--0----------------|-------------------|
-------------------|--3----------------|


  W                   W                 
-------------------|-------------------|
-------------------|-------------------|
-------------------|-------------------|
--0----------------|--2----------------|


  W                   W                 
-------------------|-------------------|
-------------------|-------------------|
--7----------------|--0----------------|
-------------------|-------------------|


  W                   W                 
-------------------|-------------------|
-------------------|-------------------|
-------------------|-------------------|
--3----------------|--0----------------|


  H.           Q         W                 
---------------------|--------------------|
---------------------|--------------------|
---------------------|--------------------|
--2------------LS----|--14----------------|


  W                   W                 
-------------------|-------------------|
-------------------|-------------------|
-------------------|-------------------|
--L----------------|--L----------------|


  W                   W                 
-------------------|-------------------|
-------------------|-------------------|
-------------------|-------------------|
--L----------------|-------------------|


  W                   W                 
-------------------|-------------------|
-------------------|-------------------|
-------------------|-------------------|
-------------------|-------------------|


  W                   W                 
-------------------|-------------------|
-------------------|-------------------|
-------------------|-------------------|
-------------------|-------------------|


  W                   W                 
-------------------|-------------------|
-------------------|-------------------|
-------------------|-------------------|
-------------------|-------------------|


  W                   W                 
-------------------|-------------------|
-------------------|-------------------|
-------------------|-------------------|
-------------------|-------------------|


  W                   W                 
-------------------|-------------------|
-------------------|-------------------|
-------------------|-------------------|
-------------------|-------------------|


  W                   W                 
-------------------|-------------------|
-------------------|-------------------|
-------------------|-------------------|
-------------------|-------------------|


  W                   W                 
-------------------|-------------------|
-------------------|-------------------|
-------------------|-------------------|
-------------------|-------------------|


  W                   W                 
-------------------|-------------------|
-------------------|-------------------|
-------------------|-------------------|
-------------------|-------------------|


  W                   W                 
-------------------|-------------------|
-------------------|-------------------|
-------------------|-------------------|
-------------------|-------------------|


  W                   W                 
-------------------|-------------------|
-------------------|-------------------|
-------------------|-------------------|
-------------------|-------------------|


  W                   W                 
-------------------|-------------------|
-------------------|-------------------|
-------------------|-------------------|
-------------------|-------------------|


  W                  
-------------------||
-------------------||
-------------------||
-------------------||




Duration Legend
---------------
W - whole
H - half
Q - quarter
E - 8th
S - 16th
T - 32nd
X - 64th
. - note dotted
|-n-|  - n-tuplets


Tablature Legend
----------------
L - tied note
x - dead note
g - grace note
(n) - ghost note
> - accentuded note
NH - natural harmonic
AH - artificial harmonic
TH - tapped harmonic
SH - semi harmonic
PH - pitch harmonic
h - hammer on
p - pull off
b - bend
br - bendRelease
pb - preBend
pbr - preBendRelease
brb - bendReleaseBend
\n/ - tremolo bar dip
\n - tremolo bar dive
-/n - tremolo bar Release up
/n\ - tremolo bar inverted dip
/n - tremolo bar return
-\n - tremolo bar Release down
S - shift slide
s - legato slide
/ -  slide into from below or out of upwards
\ -  slide into from above or out of downwards
~ - vibrato
W - wide vibrato
tr - trill
TP - tremolo picking
T - tapping
S - slap
P - pop
< - fade in
^ - brush up
v - brush down
            
Submit corrections

comments powered by Disqus
↑ Back to top | Guns N Roses Bass for This I Love. Lyrics for acoustic guitar and electric guitar. Tablatures and chords are parodies/interpretations of the original songs. You may use it for private study, scholarship, research or language learning purposes only