>
 >
This I Love

This I Love Guitar Tabs

Guns N Roses - This I Love chords, tabs, tablatures, lyrics

Guitar lessons | Add/correct | Request | Top 50 tabs Artists:  A B C D E F G H I J K L M N O P Q R S T U V W X Y Z 0-9

This I Love Guitar Tabs – Guns N Roses

CD, Sheet music, Poster

Do you like This I Love? Share with your friends now
Bass TabsChordsTabsTabs v2Tabs v3Tabs v4Tabs v5
Guns N Roses
Chinese Democracy Album
Robin Finck playing the guitar

Tuning : All strings tuned down by half a step:
eb
Bb
Gb
Db
Ab
Eb

I have put Full or 1/2 above the tab for the indication of how far to bend the string.
======================================================================================


     Full            Full          Full Full
eb|--15b~~~~-----------------------15b-15b-15--13-13-12-----|
Bb|------------/12---10br~~---------------------------------|
Gb|-----------—---------------------------------------------|
Db|---------------------------------------------------------|
Ab|---------------------------------------------------------|
Eb|---------------------------------------------------------|

                                Full  ½
eb|-----------19--20--20p19p17--20b-19br----------17-|
Bb|--/17--20------------------------------20---/20---|
Gb|--------------------------------------------------|
Db|--------------------------------------------------|
Ab|--------------------------------------------------|
Eb|--------------------------------------------------|
                                 Full   Full
eb|---------------------------------------17---|
Bb|-17-15--/17-18-15-13--12--13--15brb--15b----|
Gb|--------------------------------------------|
Db|--------------------------------------------|
Ab|--------------------------------------------|
Eb|--------------------------------------------|


eb|--x--x---17/----15/-----------------|
Bb|--x--x---17/----15/---/17--18----15-|
Gb|------------------------------------|
Db|------------------------------------|
Ab|------------------------------------|
Eb|------------------------------------|

          Full Full    Full Full
eb|------------------------------------------------------|
Bb|--------15b-15b-15--15b-15br--------------------------|
Gb|-/14-17---------------------14-14----14-14-16-17------|
Db|-------------------------------------------------14---|
Ab|------------------------------------------------------|
Eb|------------------------------------------------------|


eb|---17-----------------17---17~~~-|
Bb|---17--17--17----20--------------|
Gb|---------------------------------|
Db|---------------------------------|
Ab|---------------------------------|
Eb|---------------------------------|

            Full            Full       Full+1/2
eb|----17---19br-17h19------20brb--20--22brb---|
Bb|/20-----------------17~~--------------------|
Gb|--------------------------------------------|
Db|--------------------------------------------|
Ab|--------------------------------------------|
Eb|--------------------------------------------|

eb|-17\---15\---13\-----13-\-10-------------------|
Bb|-17\---15\---13\-----13-\-10------------15-----|
Gb|-------------------------------/14---17----16--|
Db|-----------------------------------------------|
Ab|-----------------------------------------------|
Eb|-----------------------------------------------|
                                          ½
                  Slow slide gives a dissonant effect
eb|-------------------------------------------|
Bb|-------------------------------------------|
Gb|---16--14—-14--14--/--13---13--14--16—16br-|
Db|-------------------------------------------|
Ab|-------------------------------------------|
Eb|-------------------------------------------|

               ½
eb|-------------------------------------|
Bb|-------15-------------------17~~~----|
Gb|-14--14----16br—-14\--/14------------|
Db|-------------------------------------|
Ab|-------------------------------------|
Eb|-------------------------------------|

         1+1/2    Full Full
eb|-------------------------------------------------------15-|
Bb|------17b-17---15b-15br--15p13--15--15p13h17p13-----------|
Gb|----------------------------------------------------/14---|
Db|----------------------------------------------------------|
Ab|----------------------------------------------------------|
Eb|----------------------------------------------------------|

      Full Full       Full                Full Full               1/2
eb|---------------------------------------------15-------17--16-------------|
Bb|---15br—15b---15---15b-----15p13h15----15br15b—15r------------17--b---15-|
Gb|-------------------------------------------------------------------------|
Db|-------------------------------------------------------------------------|
Ab|-------------------------------------------------------------------------|
Eb|-------------------------------------------------------------------------|

                                           ½                             ½
eb|---------------------------------------------------------------------------------|
Bb|--13--12--13--15--13-------------------------------------------------------------|
Gb|----------------------14---/14--16-17--17b--17------------------14---16br------14|
Db|-------------------------------------------------17--17---14---------------17----|
Ab|---------------------------------------------------------------------------------|
Eb|---------------------------------------------------------------------------------|

      ½       Full                                Full
                                                   Pre-Bend, release back to 14.
eb|---------------------------------------------------------------------------------|
Bb|---------------------------------------------------------------------------------|
Gb|--16br-----12br---7br---/9---\7-----/13—-14—16—14pbr~~~~~~--14\13------\9~~~~~---|
Db|-------17------------------------------------------------------------------------|
Ab|---------------------------------------------------------------------------------|
Eb|---------------------------------------------------------------------------------|


| /  slide up
| \  slide down
| h  hammer-on
| p  pull-off
| ~  vibrato
| +  harmonic
| x  Mute note
| b  Bend String
| br Bend String and release back
| pbr Pre-Bend String and release back to number shown
=========================================================================================





Comments


Popular Guns N Roses tabs & chords
Don Cry Bass Tabs
Knockin On Heavens Door 2 Bass Tabs
Civil War 1 Chords
November Rain 4 Chords
Raw Power Chords
Wild Horses 1 Chords
Paradise City Drum Tabs
Since I Dont Have You 2 Tabs
Sympathy For The Devil Tabs
The Godfather Theme 4 Tabs


Song lyrics



↑ Back to top | Tablatures and chords are parodies/interpretations of the original songs. You may use it for private study, scholarship, research or language learning purposes only
© 2014 AZChords.com Contact us | Privacy policy | DMCA | Add/correct tabs | Request tabs | Top 50 tabs