>
 >
Think About You

Think About You Guitar Tabs

Guns N Roses - Think About You chords, tabs, tablatures, lyrics

Guitar lessons | Add/correct | Request | Top 50 tabs Artists:  A B C D E F G H I J K L M N O P Q R S T U V W X Y Z 0-9

Think About You Guitar Tabs – Guns N Roses

CD, Sheet music, Poster

Do you like Think About You? Share with your friends now
Drum TabsTabsTabs v2Tabs v3
- - - - - - - - - - - - - - - - - - - - - - - - - - - - - - - - - - - -
ok, these are basic chords,,,,,,i think,
sounds about right, just crank your amp & you wont tell the difference.
regulation gunners tuning!! (half step down)

Intro:
D B //// D A //// D G //// // //// 
D B //// D A //// D - G////////

Verses:
A B 
I say baby youve been looking real good, you know that 
A 
I remember when we meiet
A B 
its funny how it never felt so good, its a 
A 
feeling that i know i know ill never forget
G 
ooh it was the best time i can
A
remember

G
ooh and the love we shared- is
A 
loving that will last forever


there wasnt much in this heart of mine, 
there was a litle left & babe you found it,
its funny how i never felt so high, 
its a feeling that i know i know ill never forget,
oooh, it was the best time i can remember,
oooh, & the love we shared, is lovon' that will last forever,,,

something changed in this heart of mine, 
you know that im so glad that you showed me,
honey now youre my best friend, i wanna
stay together till the very end,
oooh, it was the best time i can remember,
ooh, & the love we shared, is lovin' that will last forever


Chorus:
B D G 
I think about you, honey all the time, my heart says yes
I think about you, deep inside, i love you best
I think about you, you know youre, the one i want
I think about you, darling youre, the only one

e|-----0-----0--------0----0-------0----0----0---0----|
b|------5-----5--------5----5-------5----5----5---5---|
g|-(4)----(4)-----------4----4------------------------|
d|----------------0-----------------------------------|
a|--2------2------------------------------------------|
e|-------------------------------3----3----3----3-----|

F# G#/F# F# G#/F# F# G#/F#
I think about yoooooooou 
fill:
F# G# B C# x2 (pm on last c#)

solo: (octaves)
B\C# B\C# B\C# B\C# B
B\C# B\C# B\C# B\C# B

B D G# A/G# A/G# 
i think about you, you know, that i dooo
B D G# A/G# A/G# 
i think about you, all alone, only youou
B D G# A/G# A/G#
i think about you, ooow, its trueue
B D G#........ 
i think about you, wohow, yes i douououou oow!


outro:
B
i think about you, ow ow yeyea, i think about you, ow youou
D A 
i think about you, ow youoooou, only yo o ouowou
B
i think about you, you know i douou, i think about you, only youou
D B A
i think about yoooooou, only yoooooooooooou,

only...

e|-----0----------5-----|
b|----3-3----------5----|
g|---4---4------6---6---|
d|--4-----4----7-----7--|
a|-2----------7---------|
e|----------\5----------|

yoooooooooooooooooooooooooou......only ahh.

e|------0--------0--------0---------0-------------------0-----4----|
b|----0---0----0---0----0---0-----0---0----------------5-5----5----|
g|----------------------------------------------------4---4---4----|
d|---------------------------------------------------4-----4--4----|
a|-2---------4--------5--------4-----------4\5/4/2--2---------2----|
e|-----------------------------------------------------------------|

(attempted by: Gun_of a_Rose)
Enjoy, play loud & keep rock alive





Comments


Popular Guns N Roses tabs & chords
Raw Power Bass Tabs
One In A Million Chords
Aint It Fun 4 Tabs
Breakdown Tabs
It's Alright Tabs
My Michelle Tabs
Prostitute Tabs
Scraped Intro Tabs
Used To Love Her Tabs
Welcome To The Jungle 4 Tabs


Song lyrics



↑ Back to top | Tablatures and chords are parodies/interpretations of the original songs. You may use it for private study, scholarship, research or language learning purposes only
© 2014 AZChords.com Contact us | Privacy policy | DMCA | Add/correct tabs | Request tabs | Top 50 tabs