>
 >
Shotgun Blues 1

Shotgun Blues 1 Guitar Tabs

Guns N Roses - Shotgun Blues 1 chords, tabs, tablatures, lyrics

Guitar lessons | Add/correct | Request | Top 50 tabs Artists:  A B C D E F G H I J K L M N O P Q R S T U V W X Y Z 0-9

Shotgun Blues 1 Guitar Tabs – Guns N Roses

CD, Sheet music, Poster

Do you like Shotgun Blues 1? Share with your friends now
Bass TabsTabsTabs v2Tabs v3
SHOTGUN BLUES by GUNS N' ROSES
USE YOUR ILLUSION II

this is a great fast song by GN'R that is extremly underrated. one of my favorites for sure.

Gtr I (Eb Ab Db Gb Bb Eb) - Rhythm
Gtr II (Eb Ab Db Gb Bb Eb) - Rhythm
Gtr III (Eb Ab Db Gb Bb Eb) - Solo

Izzy (Left speaker) plays the lower chords
Slash (Right speaker) plays the higher chords and solo
You'll understand what I mean when you listen to the song and isolate the 2 speakers and 
to them.

 Intro
 Fast Rock Q=182


 Gtrs I, II

|---------------------|-------------------------|---------------------|
|-----14--------------|---------11--------------|---------12--x-12--x-|
|-----14--------------|---------11--------------|---------12--x-12--x-|
|-14--14--14-14-14-11-|-(11)-11-11--11-11-11-12-|-(12)-12-12--x-12--x-|
|-14------14-14-14-11-|-(11)-11-----11-11-11-12-|-(12)-12-10--x-10--x-|
|-12--12--12-12-12--9-|--(9)--9--9---9--9--9-10-|-(10)-10-------------|


|-------------------------|---------------------|-------------------------|
|-12----------------------|-----14--------------|---------11--------------|
|-12----------------------|-----14--------------|---------11--------------|
|-12--12-12-(12)-12-12-12-|-14--14--14-14-14-11-|-(11)-11-11--11-11-11-12-|
|-10--12-12-(12)-12-12-12-|-14------14-14-14-11-|-(11)-11-----11-11-11-12-|
|-----10-10-(10)-10-10-10-|-12--12--12-12-12--9-|--(9)--9--9---9--9--9-10-|


|---------------------|-------------------------|
|---------12--x-12--x-|-12----------------------|
|---------12--x-12--x-|-12----------------------|
|-(12)-12-12--x-12--x-|-12--12-12-(12)-12-12-12-|
|-(12)-12-10--x-10--x-|-10--12-12-(12)-12-12-12-|
|-(10)-10-------------|-----10-10-(10)-10-10-10-|


 1st, 2nd Verses

|--------------------|-----------------------|
|-----------14-14-14-|-14--------------------|
|-----------14-14-14-|-14--------------------|
|-14--14----14-14-14-|-14--14-14-(14)-14-14S=|
|-14--14-------------|-----14-14-(14)-14-14S=|
|-12--12----12-12-12-|-12--12-12-(12)-12-12S=|


|--------------------|-------------------------|
|-----------10-10-10-|-10----------------------|
|-----------10-10-10-|-10----------------------|
|-10--10----10-10-10-|-10--10-10-(10)-10-10S===|
|-10--10-------------|-----10-10-(10)-10-10S===|
|--8---8-----8--8--8-|--8---8--8--(8)--8--8S===|


|---------------|------------------|---------------|-------------------|
|---------7-7-7-|-7----------------|---------9-9-9-|-9-----------------|
|---------7-7-7-|-7----------------|---------9-9-9-|-9-----------------|
|-7--7----7-7-7-|-7--7-7-(7)-7-7-7-|-9--9----9-9-9-|-9--9-9-(9)-9-9-9--|
|-7--7----------|----7-7-(7)-7-7-7-|-9--9----------|----9-9-(9)-9-9-9--|
|-5--5----5-5-5-|-5--5-5-(5)-5-5-5-|-7--7----7-7-7-|-7--7-7-(7)-7-7-7--|


|--------------------|-----------------------|
|-----------14-14-14-|-14--------------------|
|-----------14-14-14-|-14--------------------|
|-14--14----14-14-14-|-14--14-14-(14)-14-14S=|
|-14--14-------------|-----14-14-(14)-14-14S=|
|-12--12----12-12-12-|-12--12-12-(12)-12-12S=|


|--------------------|-------------------------|
|-----------10-10-10-|-10----------------------|
|-----------10-10-10-|-10----------------------|
|-10--10----10-10-10-|-10--10-10-(10)-10-10S===|
|-10--10-------------|-----10-10-(10)-10-10S===|
|--8---8-----8--8--8-|--8---8--8--(8)--8--8S===|


|---------------|------------------|---------------|-------------------|
|---------7-7-7-|-7----------------|---------9-9-9-|-9-----------------|
|---------7-7-7-|-7----------------|---------9-9-9-|-9-----------------|
|-7--7----7-7-7-|-7--7-7-(7)-7-7-7-|-9--9----9-9-9-|-9--9-9-(9)-9-9-9--|
|-7--7----------|----7-7-(7)-7-7-7-|-9--9----------|----9-9-(9)-9-9-9--|
|-5--5----5-5-5-|-5--5-5-(5)-5-5-5-|-7--7----7-7-7-|-7--7-7-(7)-7-7-7--|


 Pre-Chorus
 "Oh, ya get what you paid for..."
|----------|-------------|------------|------------------|
|----------|-------------|------------|------------------|
|----------|-------------|------------|------------------|
|-9--------|-(9)------9--|-7-------7--|-6s7-7-6s7-7-7-9--|
|-9--------|-(9)------9--|-7-------7--|-6s7-7-6s7-7-7-9--|
|-7--------|-(7)------7--|-5-------5--|-4s5-5-4s5-5-5-7--|
|
|------------|-----------------|------------|------------------|
|------------|-----------------|------------|------------------|
|------------|-----------------|------------|------------------|
|-9-------9--|-8s9-9-8s9-9-9-7-|-7-------7--|-6s7-7-6s7-7-7-x--|
|-9-------9--|-8s9-9-8s9-9-9-7-|-7-------7--|-6s7-7-6s7-7-7-x--|
|-7-------7--|-6s7-7-6s7-7-7-5-|-5-------5--|-4s5-5-4s5-5-5-x--|


  Gtr I
|--------------|-------------------------|
|--------------|-------------------------|
|--7--------7--|--6s=7--7--6s=7--7--7--9-|
|--7--------7--|--6s=7--7--6s=7--7--7--9-|
|--5--------5--|--4s=5--5--4s=5--5--5--7-|
|--------------|-------------------------|
|
|--------------|-------------------------|
|--------------|-------------------------|
|--------------|-------------------------|
|-12-------12--|-11s12-12-11s12-12-12-14-|
|-12-------12--|-11s12-12-11s12-12-12-14-|
|-10-------10--|--9s10-10--9s10-10-10-12-|


|--------------|--------------------------||
|--------------|-------------------------o||
|--9--------9--|--8s=9--9--8s=9--9--9-x---||
|--9--------9--|--8s=9--9--8s=9--9--9-x---||
|--7--------7--|--6s=7--7--6s=7--7--7-x--o||
|--------------|--------------------------||
|

|--------------|--------------------------||
|--------------|-------------------------o||
|--------------|--------------------------||
|-14-------14--|-13s14-14-13s14-14-14-x---||
|-14-------14--|-13s14-14-13s14-14-14-x--o||
|-12-------12--|-11s12-12-11s12-12-12-x---||


|--------------------|------------------------|
|-11--11--(11)-----6-|--(6)-6--6--(6)-------7-|
|-11--11--(11)-----6-|--(6)-6--6--(6)-------7-|
|-11--11--(11)-----6-|--(6)-6--6--(6)-------7-|
|--9---9---(9)-----4-|--(4)-4--4--(4)-------5-|
|--------------------|------------------------|

|--------------------|------------------------|
|--------------------|------------------------|
|--------------------|------------------------|
|--4---4----x--4--11-|-(11)---11---x--9s11-12-|
|--4---4----x--4--11-|-(11)---11---x--9s11-12-|
|--2---2----x--2---9-|--(9)----9---x--7s=9-10-|


|------------------------|-------------------------|
|--(7)---7--(7)--------9-|--(9)---9--(9)-------11--|
|--(7)---7--(7)--------9-|--(9)---9--(9)-------11--|
|--(7)---7--(7)--------9-|--(9)---9--(9)-------11--|
|--(5)---5--(5)--------7-|--(7)---7--(7)--------9--|
|------------------------|-------------------------|

|------------------------|-------------------------|
|------------------------|-------------------------|
|------------------------|-------------------------|
|-(12)--12---x--11s12-14-|-(14)--14---x--13s14--4--|
|-(12)--12---x--11s12-14-|-(14)--14---x--13s14--4--|
|-(10)--10---x---9s10-12-|-(12)--12---x--11s12--2--|


|-----------------------|---------------------|
|-(11)--11--(11)-11---6-|--(6)---6--6-6--6--7-|
|-(11)--11--(11)-11---6-|--(6)---6--6-6--6--7-|
|-(11)--11--(11)-11---6-|--(6)---6--6-6--6--7-|
|--(9)---9---(9)--9---4-|--(4)---4--4-4--4--5-|
|-----------------------|---------------------|
|
|-----------------------|---------------------|
|-----------------------|---------------------|
|-----------------------|---------------------|
|--(4)---4----x---4--11-|-(11)--11--x-9s11-12-|
|--(4)---4----x---4--11-|-(11)--11--x-9s11-12-|
|--(2)---2----x---2---9-|--(9)---9--x-7s=9-10-|


|------------------------|------------------------------|
|--(7)---7--(7)--------9-|--(9)-----9-----(9)--9--9--9--|
|--(7)---7--(7)--------9-|--(9)-----9-----(9)--9--9--9--|
|--(7)---7--(7)--------9-|--(9)-----9-----(9)--9--9--9--|
|--(5)---5--(5)--------7-|--(7)-----7-----(7)--7--7--7--|
|------------------------|------------------------------|
|
|------------------------|------------------------------|
|------------------------|------------------------------|
|------------------------|------------------------------|
|-(12)--12---x--11s12-14-|-(14)-14-14-14-(14)-14-14-14--|
|-(12)--12---x--11s12-14-|-(14)-14-14-14-(14)-14-14-14--|
|-(10)--10---x---9s10-12-|-(12)-12-12-12-(12)-12-12-12--|


|---------------------------|
|--(9)--9--9--9--9--9--9--9-|
|--(9)--9--9--9--9--9--9--9-|
|--(9)--9--9--9--9--9--9--9-|
|--(7)--7--7--7--7--7--7--7-|
|---------------------------|
|
|---------------------------|
|---------------------------|
|---------------------------|
|-(14)-14-14-14-14-14-14-14-|
|-(14)-14-14-14-14-14-14-14-|
|-(12)-12-12-12-12-12-12-12-|
|
| Gtr III
|
|---------------------------|
|---------------------------|
|---------------------------|
|-solo-comming-up-----------|
|---------------------------|
|---------------------------|


|-------------------------|-------------------------|
|--9--9--9--9--9--9--9--9-|--9--9--9--9--9--9--9--9-|
|--9--9--9--9--9--9--9--9-|--9--9--9--9--9--9--9--9-|
|--9--9--9--9--9--9--9--9-|--9--9--9--9--9--9--9--9-|
|--7--7--7--7--7--7--7--7-|--7--7--7--7--7--7--7--7-|
|-------------------------|-------------------------|
|
|-------------------------|-------------------------|
|-------------------------|-------------------------|
|-------------------------|-------------------------|
|-14-14-14-14-14-14-14-14-|-14-14-14-14-14-14-14-14-|
|-14-14-14-14-14-14-14-14-|-14-14-14-14-14-14-14-14-|
|-12-12-12-12-12-12-12-12-|-12-12-12-12-12-12-12-12-|
|
|  W                         W
|-------------------------|-------------------------|
|-------------------------|-------------------------|
|-------------------------|-------------------------|
|-------------------------|-------------------------|
|-------------------------|-------------------------|
|-------------------------|-19S=====================|


 Guitar Solo
 (Scroll down for the chorus, which gets repeated quite a bit)
  Gtrs I, II
|-----------------|-------------------|
|-----------------|-------------------|
|-----------------|-------------------|
|-4---4---2-4---4-|-(4)---4---2-4---7-|
|-4---4---2-4---4-|-(4)---4---2-4---7-|
|-2---2---0-2---2-|-(2)---2---0-2---5-|
|
| Gtr III
|-----------------|-------------------|
|-----------------|-------------------|
|-----------------|-------------------|
|-----------------|--2--------2---4---|
|---------2-0-2s4-|-----3---4---4-----|
|-2-5-2-5---------|-------------------|

|----------------------|------------------------|
|----------------------|------------------------|
|--------------------7-|-(7)---7------7--7-7----|
|-(7)----7---7---7-7-7-|-(7)---7------7--7-7-4--|
|-(7)----7---7---7-7-5-|-(5)---5------5--5-5-4--|
|-(5)----5---5---5-5---|---------------------2--|
|
|----------------------|-------------------2----|
|----------------------|-----------------2---2--|
|------------------2---|--2----2-4b6-(4)--------|
|--2h4p2---2-4p2h4---4-|-----4------------------|
|--------4-------------|------------------------|
|----------------------|------------------------|


|-----------------------------|-----------------------|
|-----------------------------|-----------------------|
|-----------------------------|-----------------------|
|-(4)---4---2---4---------4---|-(4)---4------4--4-4-2-|
|-(4)---4---2---4---------4---|-(4)---4------4--4-4-2-|
|-(2)---2---0---2---------2---|-(2)---2------2--2-2-0-|
|
|-----------------------------|-------------------2---|
|--5b7--5-2-------------------|-----------------2---2-|
|-----------4b6-4b5r(4)p2-----|--4----2-4b6-(4)-------|
|---------------------------4-|-----4-----------------|
|-----------------------------|-----------------------|
|-----------------------------|-----------------------|


|--------------------|--------------------|
|--------------------|--------------------|
|--------------------|--------------------|
|-(2)--2---2-2-2-7---|-7-7-7-7-6s7---6----|
|-(2)--2---2-2-2-7---|-7-7-7-7-6s7---6----|
|-(0)--0---0-0-0-5---|-5-5-5-5-4s5---4----|
|
|------5---7---5h7p5s|=4---5---4h5p4------|
|--4s7---7---7-------|---7---7-------7-5--|
|--------------------|--------------------|
|--------------------|--------------------|
|--------------------|--------------------|
|--------------------|--------------------|


|-------------------------|----------------------------------|
|-------------------------|----------------------------------|
|-------------------------|----------------------------------|
|--4-------4--2-4------4--|--(4)--4-----------2-4----------7-|
|--4-------4--2-4------4--|--(4)--4-----------2-4----------7-|
|--2-------2--0-2------2--|--(2)--2-----------0-2----------5-|
|
|          ~~
|---------12--------------|------------------12--------------|
|-12b14===========12r(12)-|-(12)----(12)b14=======12r(12)\---|
|-------------------------|----------------------------------|
|-------------------------|----------------------------------|
|-------------------------|----------------------------------|
|-------------------------|----------------------------------|


|-------------------------|--------------------------------------|
|-------------------------|--------------------------------------|
|---------------------7---|-(7)---------7-----7----7----7--------|
|-(7)---7---7-7---7---7---|-(7)---------7-----7----7----7----4---|
|-(7)---7---7-7---7---5---|-(5)---------5-----5----5----5----4---|
|-(5)---5---5-5---5-------|----------------------------------2---|
|
|-------------------------|--------------------------------------|
|-------------------------|--------------------------------------|
|-------------------------|---------------------9h11p9----9h11---|
|-----------------7-7-9p7-|-----7-9s11-11-9-/11--------11--------|
|-----7---7-7h9p7---------|--9-----------------------------------|
|--7----------------------|--------------------------------------|

|------------------------------|--------------------------|
|------------------------------|--------------------------|
|------------------------------|--------------------------|
|--4----------4----2-4-------4-|--(4)-------4----4-4--4-2-|
|--4----------4----2-4-------4-|--(4)-------4----4-4--4-2-|
|--2----------2----0-2-------2-|--(2)-------2----2-2--2-0-|
|
|------------------------------|--------------------------|
|-10b11-(10)-------------------|-----------------9---11---|
|------------11p9-11p==9-11-11-|-(11)p9----11----9---11-9-|
|------------------------------|--------11----11----------|
|------------------------------|--------------------------|
|------------------------------|--------------------------|


|--------------------------|------------------|
|--------------------------|------------------|
|--------------------------|------------------|
|-(2)--2--2--2--2----2-2-9-|-(9)9-9-9-9-9-9-9-|
|-(2)--2--2--2--2----2-2-9-|-(9)9-9-9-9-9-9-9-|
|-(0)--0--0--0--0----0-0-7-|-(7)7-7-7-7-7-7-7-|
|
|--9------9--9--9------7-7-|--7s5-5-5-5s4-4-4-|
|-10--10-10-10-10s9----9-9-|--9s7-7-7-7s5-5-5-|
|--------------------------|------------------|
|--------------------------|------------------|
|--------------------------|------------------|
|--------------------------|------------------|

|-------------------|------------------|------------------------|
|-------------------|------------------|------------------------|
|-------------------|------------------|------------------------|
|-9-9-9-9--9--9-9-9-|-9-9-9-9-9-9-9--9-|--9-9--9--9--9--9-9-----|
|-9-9-9-9--9--9-9-9-|-9-9-9-9-9-9-9--9-|--9-9--9--9--9--9-9-----|
|-7-7-7-7--7--7-7-7-|-7-7-7-7-7-7-7--7-|--7-7--7--7--7--7-7-----|
|
|       ~~~~~~

|-2-----------------|-----7-----9------|-10---------11----------|
|-4-----------------|------------------|------------------------|
|---4-4-4-(4)-4-4-2-|-4s8---8s9---9s10-|------10s11---------11s=|
|-------4-(4)-4-4-2-|------------------|------------------------|
|-------------------|------------------|------------------------|
|-------------------|------------------|------------------------|


|--------------------------|-------------------------|
|--------14----------------|---------11--------------|
|--------14----------------|---------11--------------|
|-14-----14---14--14-14-11-|-(11)-11-11--11-11-11-12-|
|-14----------14--14-14-11-|-(11)-11-----11-11-11-12-|
|-12-----12---12--12-12--9-|--(9)--9--9---9--9--9-10-|
|
|     ~~~~~~~~~~~~~~~~~~~~~~~~~~~~~~~~~~~~~~~~~~~~~~~~

|----12------(12)----------|-(12)--------------------|
|--------------------------|-------------------------|
|-13-----------------------|-------------------------|
|--------------------------|-------------------------|
|--------------------------|-------------------------|
|--------------------------|-------------------------|

|--------------------------------|----------------------------------|
|---------12----x---12-----x-----|--12------------------------------|
|---------12----x---12-----x-----|--12------------------------------|
|-(12)-12-12----x---12-----x-----|--12---12--12-----(12)--12-12-12--|
|-(12)-12-10----x---10-----x-----|--10---12--12-----(12)--12-12-12--|
|-(10)-10------------------------|-------10--10-----(10)--10-10-10--|
|
|~~~~~~~~~~~~~~~~~~

|-(12)--------(12)-(12)\---------|----------------------------------|
|--------------------------------|----------------------------------|
|--------------------------------|----------------------------------|
|--------------------------------|----------------------------------|
|-------------------------12b14==|=(12)-----(12)b16r(12)\-----------|
|--------------------------------|----------------------------------|

|---------------------|-------------------------|
|-----14--------------|---------11--------------|
|-----14--------------|---------11--------------|
|-14--14--14-14-14-11-|-(11)-11-11--11-11-11-12-|
|-14------14-14-14-11-|-(11)-11-----11-11-11-12-|
|-12--12--12-12-12--9-|--(9)--9--9---9--9--9-10-|


|---------------------|--------------------------|
|---------12--x-12--x-|-12-----------------------|
|---------12--x-12--x-|-12-----------------------|
|-(12)-12-12--x-12--x-|-12--12-12-(12)-12-12-12--|
|-(12)-12-10--x-10--x-|-10--12-12-(12)-12-12-12--|
|-(10)-10-------------|-----10-10-(10)-10-10-10--|


 Chorus

|---------------------|-------------------------|
|-----14--------------|---------11--------------|
|-----14--------------|---------11--------------|
|-14--14--14-14-14-11-|-(11)-11-11--11-11-11-12-|
|-14------14-14-14-11-|-(11)-11-----11-11-11-12-|
|-12--12--12-12-12--9-|--(9)--9--9---9--9--9-10-|


|---------------------|--------------------------|
|---------12--x-12--x-|-12-----------------------|
|---------12--x-12--x-|-12-----------------------|
|-(12)-12-12--x-12--x-|-12--12-12-(12)-12-12-12--|
|-(12)-12-10--x-10--x-|-10--12-12-(12)-12-12-12--|
|-(10)-10-------------|-----10-10-(10)-10-10-10--|

|---------------------|-------------------------|
|-----14--------------|---------11--------------|
|-----14--------------|---------11--------------|
|-14--14--14-14-14-11-|-(11)-11-11--11-11-11-12-|
|-14------14-14-14-11-|-(11)-11-----11-11-11-12-|
|-12--12--12-12-12--9-|--(9)--9--9---9--9--9-10-|


|---------------------|--------------------------|
|---------12--x-12--x-|-12-----------------------|
|---------12--x-12--x-|-12-----------------------|
|-(12)-12-12--x-12--x-|-12--12-12-(12)-12-12-12--|
|-(12)-12-10--x-10--x-|-10--12-12-(12)-12-12-12--|
|-(10)-10-------------|-----10-10-(10)-10-10-10--|


|---------------------|-------------------------|
|-----14--------------|---------11--------------|
|-----14--------------|---------11--------------|
|-14--14--14-14-14-11-|-(11)-11-11--11-11-11-12-|
|-14------14-14-14-11-|-(11)-11-----11-11-11-12-|
|-12--12--12-12-12--9-|--(9)--9--9---9--9--9-10-|


|---------------------|--------------------------|
|---------12--x-12--x-|-12-----------------------|
|---------12--x-12--x-|-12-----------------------|
|-(12)-12-12--x-12--x-|-12--12-12-(12)-12-12-12--|
|-(12)-12-10--x-10--x-|-10--12-12-(12)-12-12-12--|
|-(10)-10-------------|-----10-10-(10)-10-10-10--|

|---------------------|-------------------------|
|-----14--------------|---------11--------------|
|-----14--------------|---------11--------------|
|-14--14--14-14-14-11-|-(11)-11-11--11-11-11-12-|
|-14------14-14-14-11-|-(11)-11-----11-11-11-12-|
|-12--12--12-12-12--9-|--(9)--9--9---9--9--9-10-|

|---------------------|--------------------------|
|---------12--x-12--x-|-12-----------------------|
|---------12--x-12--x-|-12-----------------------|
|-(12)-12-12--x-12--x-|-12--12-12-(12)-12-12-12--|
|-(12)-12-10--x-10--x-|-10--12-12-(12)-12-12-12--|
|-(10)-10-------------|-----10-10-(10)-10-10-10--|


|-----------------|-------------------------|
|-----12--x-12--x-|-12----------------------|
|-----12--x-12--x-|-12----------------------|
|-12--12--x-12--x-|-12--12-12-(12)-12-12-12-|
|-12--------------|-----12-12-(12)-12-12-12-|
|-10--10--x-10--x-|-10--10-10-(10)-10-10-10-|


|-----------------|--------------------------|
|-----12--x-12--x-|-12-----------------------|
|-----12--x-12--x-|-12-----------------------|
|-12--12--x-12--x-|-12--12-12-(12)-12-12-12--|
|-12--------------|-----12-12-(12)-12-12-12--|
|-10--10--x-10--x-|-10--10-10-(10)-10-10-10--|

|-----------------|-------------------------|
|-----12--x-12--x-|-12----------------------|
|-----12--x-12--x-|-12----------------------|
|-12--12--x-12--x-|-12--12-12-(12)-12-12-12-|
|-12--------------|-----12-12-(12)-12-12-12-|
|-10--10--x-10--x-|-10--10-10-(10)-10-10-10-|

|-----------------|--------------------------|
|-----12--x-12--x-|-12-----------------------|
|-----12--x-12--x-|-12-----------------------|
|-12--12--x-12--x-|-12--12-12-(12)-12-12-12--|
|-12--------------|-----12-12-(12)-12-12-12--|
|-10--10--x-10--x-|-10--10-10-(10)-10-10-10--|


|-----------------|-------------------------|
|-----12--x-12--x-|-12----------------------|
|-----12--x-12--x-|-12----------------------|
|-12--12--x-12--x-|-12--12-12-(12)-12-12-12-|
|-12--------------|-----12-12-(12)-12-12-12-|
|-10--10--x-10--x-|-10--10-10-(10)-10-10-10-|


|-----------------|--------------------------|
|-----12--x-12--x-|-12-----------------------|
|-----12--x-12--x-|-12-----------------------|
|-12--12--x-12--x-|-12--12-12-(12)-12-12-12--|
|-12--------------|-----12-12-(12)-12-12-12--|
|-10--10--x-10--x-|-10--10-10-(10)-10-10-10--|

|-----------------|-------------------------|
|-----12--x-12--x-|-12----------------------|
|-----12--x-12--x-|-12----------------------|
|-12--12--x-12--x-|-12--12-12-(12)-12-12-12-|
|-12--------------|-----12-12-(12)-12-12-12-|
|-10--10--x-10--x-|-10--10-10-(10)-10-10-10-|

  Gtrs I, II

|--------------------------|--------------------------|
|--------------------------|--------------------------|
|--------------------------|--------------------------|
|-12-----11----9-------7---|-12-----11----9-------7---|
|-12-----11----9-------7---|-12-----11----9-------7---|
|-10------9----7-------5---|-10------9----7-------5---|
|
| Gtr III

|--9b10r=(9)---------------|--9b10r=(9)---------------|
|-------------10b12r=(10)--|-------------10b12r=(10)--|
|--------------------------|--------------------------|
|--------------------------|--------------------------|
|--------------------------|--------------------------|
|--------------------------|--------------------------|

|--------------------------|------------------------|
|--------------------------|------------------------|
|--------------------------|------------------------|
|-12-----11----9-------7---|-12----11--9------7-----|
|-12-----11----9-------7---|-12----11--9------7-----|
|-10------9----7-------5---|-10-----9--7------5-----|
|
|--9b10r=(9)---------------|------------------------|
|-------------10b12r=(10)--|--7b8---7---------------|
|--------------------------|-----------9b11r=(9)p7--|
|--------------------------|------------------------|
|--------------------------|------------------------|
|--------------------------|------------------------|


 Outro
"Nothin' but a fuckin' pussy..."
Gtr I
              ~~~                             ~

|----------|-----------------|--------4-----------|
|----------|-----------------|----------------3---|
|-4--------|-(4)-------------|--2s=4-------4------|
|-2--------|-----------------|--------------------|
|-2--------|-----------------|--------------------|
|-0--------|-----------------|--------------------|
|
| Gtr II

|----------|-----------------|--------------------|
|----------|-----------------|--------------------|
|----------|-----------------|------------------x-|
|-2--------|-(2)-------------|--------------------|
|-2--------|-(2)-------------|--------------------|
|-0--------|-(0)-------------|--------------------|
|
| Gtr III

|----------|-----------------|--------------------|
|----------|-----------------|--------------------|
|-9--------|-(9)-------------|--------------------|
|----------|-----------------|--------------------|
|----------|-----------------|--------------------|
|----------|--------xs0------|-(0)---(0)----------|


   ~~~~~~~~~~~

|------------------------------|--5------------------------*|
|-(3)-----(3)------------------|--5------------------------*|
|---------------------------x--|----xs===x-----------------*|
|---------------------------x--|----xs===x-----------------*|
|------------------------------|-----------xs0-----x/------*|
|------------------------------|---------------xs0----x/---*|
|

|------------------------------|---------------------------*|
|------------------------------|---------------------------*|
|--------------------x------0--|-^x------------------------*|
|--x------------(0)-----x---0--|-^x------------------------*|
|-----x-------4-----------x-0--|-^x------------------------*|
|-------x-(x)---------------0--|-^x---x/-------------------*|
|
|
|------------------------------|---------------------------*|
|------------------------------|---------------------------*|
|------------------------------|---------------------------*|
|------------------------------|---------------------------*|
|------------------------------|---------------------------*|
|-(0)-----(0)-------(0)--------|---------------------------*|

enjoy!





Comments


Popular Guns N Roses tabs & chords
Chinese Democracy Bass Tabs
Live And Let Die 3 Bass Tabs
Civil War 1 Chords
November Rain 3 Chords
Rocket Queen Drum Tabs
Bad Apples Tabs
Civil War 2 Tabs
I Don't Care About You Tabs
Paradise City 7 Tabs
Welcome To The Jungle 3 Tabs


Song lyrics



↑ Back to top | Tablatures and chords are parodies/interpretations of the original songs. You may use it for private study, scholarship, research or language learning purposes only
© 2014 AZChords.com Contact us | Privacy policy | DMCA | Add/correct tabs | Request tabs | Top 50 tabs