» » »

Guns N Roses, November Rain Tabs (ver.2)

Artists:  A B C D E F G H I J K L M N O P Q R S T U V W X Y Z # 

November Rain Tabs (ver.2)

Guns N Roses Tabs
 Rating:
4/5 (4 votes)
November Rain lessons Tabs too difficult? Try these video lessons and learn fast
1
                
notes: Yea it took me a long time to tab outro so pls rate this tab. :)

 4/4
  Gtr I
                           ~~
Solo 1  

E|-----------8-----------------------------8------------8~~~~~~-------|
B|-b8---r8b----8---r(8)p6--8brbr----r8b------r8--5br~~----------5brbr-|
G|--------------------------------------------------------------------|
D|--------------------------------------------------------------------|
A|--------------------------------------------------------------------|
E|--------------------------------------------------------------------|

E|------------------------------------------------------------------|
B|-5~~----------8------------------------8--------------------------|
G|-----7p5--7/9---9\7--5---b8-------r8b----8--r(8)p6--8brb-----r8b--|
D|------------------------------------------------------------------|
A|------------------------------------------------------------------|
E|------------------------------------------------------------------|

E|-8-8br---10b(hold)-8h10p8----8-------13p12-----13p12----13b---13~~~~--|
B|--------------------------10---11b----------13-------13---------------|
G|----------------------------------------------------------------------|
D|----------------------------------------------------------------------|
A|----------------------------------------------------------------------|
E|----------------------------------------------------------------------|

E|----12--13-12h13p12---------12-13br-13-12-12b-12~~~-20--(20)~~~-|
B|-15-----------------15~~-15-------------------------------------|
G|----------------------------------------------------------------|
D|----------------------------------------------------------------|
A|----------------------------------------------------------------|
E|----------------------------------------------------------------|

E|-19-19--19\17--17\15--15\13--13--13\12--12--12h13p12-----12h13~~~|
B|------------------------------------------------------15---------|
G|-----------------------------------------------------------------|
D|-----------------------------------------------------------------|
A|-----------------------------------------------------------------|
E|-----------------------------------------------------------------|

E|-12-13-12h13p12--------12---------------------------------------------|
B|----------------15p13-----13---15h17p15-15-12h13-12h13p12--------12---|
G|-----------------------------------------------------------14p12------|
D|----------------------------------------------------------------------|
A|----------------------------------------------------------------------|
E|----------------------------------------------------------------------|

E|-------------------------------------------------------------|
B|----10-----------------------------13~~~~--------------13~~~-|
G|-12----10--12--10--9~~~~--12p10\9-----------10h12p10\9-------|
D|-------------------------------------------------------------|
A|-------------------------------------------------------------|
E|-------------------------------------------------------------|

E|--------------------------15--------------------|
B|-------------15b-------------r15---13-----(13)b-|
G|-10h12p10\9-------------------------------------|
D|------------------------------------------------|
A|------------------------------------------------|
E|------------------------------------------------| 


Solo 2:

E|--------------------------------------20---------------20---------19b-|
B|-----------------------18~~~~~~-20b------r20-----(20)b----18-17~------|
G|-7-9-10-12-14-16-17-19------------------------------------------------|
D|----------------------------------------------------------------------|
A|----------------------------------------------------------------------|
E|----------------------------------------------------------------------|
  
        w/Fill 2.
E|----------------------17--------------------------------------------------|
B|-17b-rb-r----17-18-20----18--20-17-18-20--17br-17-------------------------|
G|----------19--------------------------------------19brp17--19p17-----17---|
D|------------------------------------------------------------------19------|
A|--------------------------------------------------------------------------|
E|--------------------------------------------------------------------------|

E|-----------------------------------------------------------------------|
B|-20---------------20----------------20b--20--18h20p18p17--18-17h18p17--|
G|----17-17------17----17-17-17----17------------------------------------|
D|-----------19-----------------19---------------------------------------|
A|-----------------------------------------------------------------------|
E|-----------------------------------------------------------------------|

E|------------------------------------|
B|-----17------20---------------------|
G|-19-----19b------19---17~~~~--------|
D|------------------------------------|
A|------------------------------------|
E|------------------------------------| 




OUTRO:  (COOL!!)


|-20-19-20-22----15----15-16-15-16-15----15----15-16-15-16-15----------------15-------------------|
|-------------------16----------------18----18----------------18-16----16-18----18-16-18-15-16-18-|
|-------------------------------------------------------------------17----------------------------|
|-------------------------------------------------------------------------------------------------|
|-------------------------------------------------------------------------------------------------|
|-------------------------------------------------------------------------------------------------|


                                                                          ~~
   
|---------------------------------------------------20-19-20-22-15----15-16-15-16-15----15----------15-16-|
|-18-16-15-16-15b16r16----15-16-18-15-16-18-15---------------------16----------------18----15-16-18-------|
|----------------------17----------------------17---------------------------------------------------------|
|---------------------------------------------------------------------------------------------------------|
|---------------------------------------------------------------------------------------------------------|
|---------------------------------------------------------------------------------------------------------|


   
|-15-16-15-------15-------15-------------------------15-16-15-------15-------15----------------------------|
|----------18-16----16-18----18-16-18-16----15-16-18----------18-16----16-18----18-16----15-16-18-15----16-|
|----------------------------------------17-------------------------------------------17-------------17----|
|----------------------------------------------------------------------------------------------------------|
|----------------------------------------------------------------------------------------------------------|
|----------------------------------------------------------------------------------------------------------|


                                                                                ~~~~~
   
|------------------------------20-19-20-22-------------------------------------20b22-15-20-19-20-15-18-16-|
|-15------------------------------------------------------------------------------------------------------|
|----17-15-17-15-13-15-13------------------19-20-19-17-20-19-17-20-22-24-20-20----------------------------|
|-------------------------12------------------------------------------------------------------------------|
|---------------------------------------------------------------------------------------------------------|
|---------------------------------------------------------------------------------------------------------|


  
|-18-15-16-15----15-------15----15----15------20-19-20-22-20-19-20-15----15-16-15-16----15----15-18-20-|
|-------------18----16-18----16----16----16---------------------------16-------------18----18----------|
|------------------------------------------------------------------------------------------------------|
|------------------------------------------------------------------------------------------------------|
|------------------------------------------------------------------------------------------------------|
|------------------------------------------------------------------------------------------------------|


   
|-18-18-15----15---------------------------------------------20-19-20-22-20-19-20-15----15-16-20-19-20-|
|----------16----16------------------------------------------------------------------16----------------|
|-------------------17-15-17-17-15---------------------------------------------------------------------|
|----------------------------------17-16-15-15-13-15-13------------------------------------------------|
|-------------------------------------------------------15---------------------------------------------|
|------------------------------------------------------------------------------------------------------|


  
|-15----15-16-15----15----15-h15-16-18-h15-16-18-15-16-18-16-15----16-------------------------------15-15-16-|
|----16----------18----18---------------------------------------18----18-20-18-18-16----18-16-18-16----------|
|------------------------------------------------------------------------------------17----------------------|
|------------------------------------------------------------------------------------------------------------|
|------------------------------------------------------------------------------------------------------------|
|------------------------------------------------------------------------------------------------------------|


                                                           ~~
   
|-15---------------20-19-20-22-20-19-20-15----15-16-15----------|
|----15-16-15-15---------------------------16----------18-15----|
|---------------------------------------------------------------|
|---------------------------------------------------------------|
|---------------------------------------------------------------|
|---------------------------------------------------------------|


Duration Legend
---------------
W - whole; H - half; Q - quarter; E - 8th; S - 16th; T - 32nd; X - 64th; a - acciaccatura
+ - note tied to previous; . - note dotted; .. - note double dotted
Uncapitalized letters represent notes that are staccato (1/2 duration)
Irregular groupings are notated above the duration line
Duration letters will always appear directly above the note/fret number it represents the
duration for.  Duration letters with no fret number below them represent rests.  Multi-
bar rests are notated in the form Wxn, where n is the number of bars to rest for.  Low
melody durations appear below the staff

Tablature Legend
----------------
 h   - hammer-on
 p   - pull-off
 b   - bend
 pb  - pre-bend
 r   - bend release (if no number after the r, then release immediately)
 /\  - slide into or out of (from/to "nowhere")
 s   - legato slide
 S   - shift slide
<n>  - natural harmonic
[n]  - artificial harmonic
n(n) - tapped harmonic
 ~   - vibrato
 tr  - trill
 T   - tap
 TP  - trem. picking
 PM  - palm muting
\n/  - tremolo bar dip; n = amount to dip
 \n  - tremolo bar down
 n/  - tremolo bar up
/n\  - tremolo bar inverted dip
 =   - hold bend; also acts as connecting device for hammers/pulls
 <>  - volume swell (louder/softer)
 x   - on rhythm slash represents muted slash
 o   - on rhythm slash represents single note slash

Misc Legend
-----------
 |  - bar
||  - double bar
||o - repeat start
o|| - repeat end
*|  - double bar (ending)
 :  - bar (freetime)
 $  - Segno
 &  - Coda
Tempo markers - <E/E./Q/Q./H/H.> = BPM(8/16=s8/s16), where s8 = swing 8ths, s16 = swing 16ths


***************************************************************************************

**************************************************************************************
            
Submit corrections

comments powered by Disqus
↑ Back to top | Guns N Roses Tabs for November Rain. Lyrics for acoustic guitar and electric guitar. 1 Tablatures and chords are parodies/interpretations of the original songs. You may use it for private study, scholarship, research or language learning purposes only