>
 >
Mama Kin 2

Mama Kin 2 Guitar Tabs

Guns N Roses - Mama Kin 2 chords, tabs, tablatures, lyrics

Guitar lessons | Add/correct | Request | Top 50 tabs Artists:  A B C D E F G H I J K L M N O P Q R S T U V W X Y Z 0-9

Mama Kin 2 Guitar Tabs – Guns N Roses

CD, Sheet music, Poster

Do you like Mama Kin 2? Share with your friends now
TabsTabs v2Tabs v3
This is almost 100% correct

Tuning: Eb Ab Db Gb Bb Eb

Intro (x1)
|------------------------------------------|
|------------------------------------------|
|------------------------------------------|
|-99-7h9-----------------------------------|
|-77-7-7--99-11-9-11--77-9-7-9--22-4-2-4---|
|---------77--7-7--7--55-5-5-5--00-0-0-0---|

Intro 2 (x1)
|-------------------------------------------------------------------|
|-------------------------------------------------------------------|
|-------------------------------------------------00----------------|
|-99-7h9------------------------------------------00----------------|
|-77-7-7--99-11-9-11--77-9-7-9--22-4-2-4-77-4-2-4-22-4-2-4-77-4-2-4-|
|---------77--7-7--7--55-5-5-5--00-0-0-0-00-0-0-0-00-0-0-0-00-0-0-0-|

Verse (x3)
|--------------------------------------------------|
|--------------------------------------------------|
|--------------------------------------------------|
|-99-7h9-------------------------------------------|
|-77-7-7--99-11-9-11--77-9-7-9--22-4-2-4-77-4-2-4--|
|---------77--7-7--7--55-5-5-5--00-0-0-0-77-0-0-0--|

Verse 2 (x1)
|--------------------------------------------------|
|--------------------------------------------------|
|--------------------------------------------------|
|-99-7h9-------------------------------------------|
|-77-7-7--99-11-9-11--77-9-7-9--22-4-2-4-77--------|
|---------77--7-7--7--55-5-5-5--00-0-0-0-00-223344-|

Pre-Chourus
   
|-0-0-0-0-0-0-0-0-0-0-0-0-0-0-0-0-0-0-0-0-0-0-0-0-0-0-0-0-0-0-0--------|
|-2-2-2-2-2-2-2-0-0-0-0-0-0-0-2-2-2-2-2-2-2-0-0-0-0-0-0-0-0-0-0--------|
|-2-2-2-2-2-2-2-1-1-1-1-1-1-1-2-2-2-2-2-2-2-1-1-1-1-1-1-1-1-1-1--------|
|-2-2-2-2-2-2-2-2-2-2-2-2-2-2-2-2-2-2-2-2-2-2-2-2-2-2-2-2-2-2-2--------|
|-0-0-0-0-0-0-0-2-2-2-2-2-2-2-0-0-0-0-0-0-0-2-2-2-2-2-2-2-2-2-2--------|
|---------------0-0-0-0-0-0-0---------------0-0-0-0-0-0-0-0-0-0-223344-|

|-0-0-0-0-0-0-0-0-0-0-0-0-0-0-----2----------2-------------------------|
|-2-2-2-2-2-2-2-0-0-0-0-0-0-0-----2--(x16)---2--(x32)------------------|
|-2-2-2-2-2-2-2-1-1-1-1-1-1-1-----2----------4-------------------------|
|-2-2-2-2-2-2-2-2-2-2-2-2-2-2-----4----------4-------------------------|
|-0-0-0-0-0-0-0-2-2-2-2-2-2-2-----4----------2-------------------------|
|---------------0-0-0-0-0-0-0-----2------------------------------------|

Verse (x1)
|--------------------------------------------------|
|--------------------------------------------------|
|--------------------------------------------------|
|-99-7h9-------------------------------------------|
|-77-7-7--99-11-9-11--77-9-7-9--22-4-2-4-77-4-2-4--|
|---------77--7-7--7--55-5-5-5--00-0-0-0-77-0-0-0--|


Verse 2 (x1)
|--------------------------------------------------|
|--------------------------------------------------|
|--------------------------------------------------|
|-99-7h9-------------------------------------------|
|-77-7-7--99-11-9-11--77-9-7-9--22-4-2-4-77--------|
|---------77--7-7--7--55-5-5-5--00-0-0-0-00-223344-|

Pre-Chourus
   
|-0-0-0-0-0-0-0-0-0-0-0-0-0-0-0-0-0-0-0-0-0-0-0-0-0-0-0-0-0-0-0--------|
|-2-2-2-2-2-2-2-0-0-0-0-0-0-0-2-2-2-2-2-2-2-0-0-0-0-0-0-0-0-0-0--------|
|-2-2-2-2-2-2-2-1-1-1-1-1-1-1-2-2-2-2-2-2-2-1-1-1-1-1-1-1-1-1-1--------|
|-2-2-2-2-2-2-2-2-2-2-2-2-2-2-2-2-2-2-2-2-2-2-2-2-2-2-2-2-2-2-2--------|
|-0-0-0-0-0-0-0-2-2-2-2-2-2-2-0-0-0-0-0-0-0-2-2-2-2-2-2-2-2-2-2--------|
|---------------0-0-0-0-0-0-0---------------0-0-0-0-0-0-0-0-0-0-223344-|

|-0-0-0-0-0-0-0-0-0-0-0-0-0-0-----2----------2-------------------------|
|-2-2-2-2-2-2-2-0-0-0-0-0-0-0-----2--(x16)---2--(x16)------------------|
|-2-2-2-2-2-2-2-1-1-1-1-1-1-1-----2----------4---------001122334-4-----|
|-2-2-2-2-2-2-2-2-2-2-2-2-2-2-----4----------4---------001122334-4-----|
|-0-0-0-0-0-0-0-2-2-2-2-2-2-2-----4----------2-------------------------|
|---------------0-0-0-0-0-0-0-----2------------------------------------|

Chourus( only part that i had a little trouble with besides solo)
|--------------------------------------------8-----------7-------------|
|---------------------------------55-32-(x4--8-(x16)-----7-(x16)-------|
|-4----4----4----4--------------4-22-22------9-----------8-------------|
|-2-44-2-44-2-44-2-----------44-2-----------10-----------9-------------|
|---22---22---22-------------22-------------10-----------9-------------|
|--------------------------------------------8-----------7-------------|

Solo(now u will see why i had to rate this advanced. Includes taping)
|-17p12p15-17p12p15-17p12p15-17-17p12p15-17p12p15-17p12p15-17p12p15----|
|----------------------------------------------------------------------|
|----------------------------------------------------------------------|
|----------------------------------------------------------------------|
|----------------------------------------------------------------------|
|----------------------------------------------------------------------|

|-12p15p11-12p15p11-12p15p11-12-------------------------------------1720~~
|-------------------------------16p15p13--15p13h14-15-13h14-13h14h17--19~~
|---------------------------------------14-----------------------------|
|----------------------------------------------------------------------|
|----------------------------------------------------------------------|
|----------------------------------------------------------------------|

Verse (x1)
|--------------------------------------------------|
|--------------------------------------------------|
|--------------------------------------------------|
|-99-7h9-------------------------------------------|
|-77-7-7--99-11-9-11--77-9-7-9--22-4-2-4-77-4-2-4--|
|---------77--7-7--7--55-5-5-5--00-0-0-0-77-0-0-0--|

Verse 2 (x1)
|--------------------------------------------------|
|--------------------------------------------------|
|--------------------------------------------------|
|-99-7h9-------------------------------------------|
|-77-7-7--99-11-9-11--77-9-7-9--22-4-2-4-77--------|
|---------77--7-7--7--55-5-5-5--00-0-0-0-00-223344-|

Pre-Chourus
   
|-0-0-0-0-0-0-0-0-0-0-0-0-0-0-0-0-0-0-0-0-0-0-0-0-0-0-0-0-0-0-0--------|
|-2-2-2-2-2-2-2-0-0-0-0-0-0-0-2-2-2-2-2-2-2-0-0-0-0-0-0-0-0-0-0--------|
|-2-2-2-2-2-2-2-1-1-1-1-1-1-1-2-2-2-2-2-2-2-1-1-1-1-1-1-1-1-1-1--------|
|-2-2-2-2-2-2-2-2-2-2-2-2-2-2-2-2-2-2-2-2-2-2-2-2-2-2-2-2-2-2-2--------|
|-0-0-0-0-0-0-0-2-2-2-2-2-2-2-0-0-0-0-0-0-0-2-2-2-2-2-2-2-2-2-2--------|
|---------------0-0-0-0-0-0-0---------------0-0-0-0-0-0-0-0-0-0-223344-|

|-0-0-0-0-0-0-0-0-0-0-0-0-0-0-----2----------2-------------------------|
|-2-2-2-2-2-2-2-0-0-0-0-0-0-0-----2--(x16)---2--(x16)------------------|
|-2-2-2-2-2-2-2-1-1-1-1-1-1-1-----2----------4---------001122334-4-----|
|-2-2-2-2-2-2-2-2-2-2-2-2-2-2-----4----------4---------001122334-4-----|
|-0-0-0-0-0-0-0-2-2-2-2-2-2-2-----4----------2-------------------------|
|---------------0-0-0-0-0-0-0-----2------------------------------------|

Chourus
|--------------------------------------------8-----10------------------|
|---------------------------------55-32-(x4--8-(x8)10(x8)--------------|
|-4----4----4----4--------------4-22-22------9-----11------------------|
|-2-44-2-44-2-44-2-----------44-2-----------10-----12------------------|
|---22---22---22-------------22-------------10-----12------------------|
|--------------------------------------------8-----10------------------|

Outro
|-10-10-10-12----------------------------------12----------------------|
|-10-10-10-12----------------------------------12----------------------|
|-11-11-11-13---14p13--------------------------13----------------------|
|-12-12-12-14--------14------------------------14----------------------|
|-12-12-12-14----------14p12p11----------------14----------------------|
|-10-10-10-12------------------12p10------3----12----------------------|

Thats the end!
No need to worry about order its allready in the order it needs to be played in. 





Comments


Popular Guns N Roses tabs & chords
Street Of Dreams 1 Chords
This I Love Chords
Mr Brownstone Drum Tabs
Dont Damn Me 1 Tabs
Double Talkin' Jive 2 Tabs
Going Down Tabs
Welcome To The Jungle 6 Tabs
Wild Horses Tabs
Catcher In The Rye Ukulele
Sweet Child O Mine 2 Ukulele


Song lyrics



↑ Back to top | Tablatures and chords are parodies/interpretations of the original songs. You may use it for private study, scholarship, research or language learning purposes only
© 2014 AZChords.com Contact us | Privacy policy | DMCA | Add/correct tabs | Request tabs | Top 50 tabs