» » »

Guns N Roses, Look At Your Game, Girl Tabs (ver.2)

Artists:  A B C D E F G H I J K L M N O P Q R S T U V W X Y Z # 

Look At Your Game, Girl Tabs (ver.2)

Guns N Roses Tabs
Rating:
0/5 (0 votes)
Look At Your Game, Girl lessons Tabs too difficult? Try these video lessons and learn fast
                Half-step as usual.

Most of the chords
Intro:
There's a time for living, Time keeps on flying


      Dmaj7        G          Dmaj7                                 
     or D#7                  or D#7                                  
E|------2----------------------2-----0h2p0-----------
B|------2----------------------2---------------------
G|------2----------------0-----2---------------------
D|------0--------------0-------0---------------------
A|-------------------2-------------------------------
E|-----------------3---------------------------------

just strum the weird A-looking Dmaj7 chord up there

Think you're loving baby
But all your doing is crying

Can you feel
Are those feelings real
(weird G, 320000)
Look at your game, girl
Look at your game, girl

What a mad delusion
Living in that confusion
Frustration and doubt
Can you ever live without the game

The sad, sad game
Mad game
Just to say loves' not enough
If it can't be true
Oh, you can tell those lies baby but you're only fooling you

Can you feel
Are those feelings real
Look at your game, girl
Look at your game, girl

E|------2--1--0--2--2-1-0----------------------
B|------2--1--0--2--2-1-0----------------------
G|------2--1--0--2--2-1-0----------------------
D|------0--------0--0--------------------------
A|---------------------------------------------
E|---------------------------------------------

Can you feel
I know those feelings ain't real
Then you better stop trying
Or you're gonna play crying
Stop trying
Or you're gonna play crying
Stop trying

That's the game
Sad sad game
Mad game
Sad game

E|--3p2---------2---------
B|------2-------2---------
G|---------2----2---------
D|-----------0--0---------
A|------------------------
E|------------------------


(spoken)
Thanks, Chas
Jack
            
Submit corrections

comments powered by Disqus
↑ Back to top | Guns N Roses Tabs for Look At Your Game, Girl. Lyrics for acoustic guitar and electric guitar. Tablatures and chords are parodies/interpretations of the original songs. You may use it for private study, scholarship, research or language learning purposes only