» » »

Guns N Roses, Knockin On Heavens Door Bass tabs (ver.1)

Artists:  A B C D E F G H I J K L M N O P Q R S T U V W X Y Z # 

Knockin On Heavens Door Bass tabs (ver.1)

Guns N Roses Tabs
 Rating:
4/5 (4 votes)
Knockin On Heavens Door lessons Tabs too difficult? Try these video lessons and learn fast
1
                                     Knockin' On Heaven's Door                             

                           Guns N' Roses

1/2 Step Down (D#G#C#F#) 



      W                   W                   W                 
F#||-------------------|-------------------|-------------------|
C#||-------------------|-------------------|-------------------|
G#||-------------------|-------------------|-------------------|
D#||-------------------|-------------------|-------------------|


  H        T  T S S S S S S S    Q    S S S S Q    E.  S  
------------------------------|--------------------------|
-----------3h-5-5-5-5-5-3-----|--------------------------|
--------------------------5-3-|-----------3-4-5----5---0-|
------------------------------|--3----3-0----------------|


  Q    E.  S S S E  S S S S    Q    S S S S Q    E.  S  
----------------------------|--------------------------|
----------------------------|--------------------------|
--3----3---0-3-0-3--3-0-3-5-|-----------3-4-5----5---0-|
----------------------------|--3----3-0----------------|


  Q    E.  S S E.  Q       H        H           Q.     E  E  E  S S S S  
-------------------5----|--------------------|--------------------------|
---------------5--------|--------------------|--------------------------|
--3----3---0-3----------|-----------5--------|--0------0--0--0--0---2-0-|
------------------------|--3-----------------|--------------------3-----|


  Q.     S S H           Q.     S S E  E  S S S S    H        H         
----------------------|---------------------------|--------------------|
----------------------|---------------------------|--------------------|
---------3-4-5--------|--3------0-3-0--3--3-0-5-0-|-----------5--------|
--3-------------------|---------------------------|--3-----------------|


  H        S S S S Q       Q.     S S Q    E.  S  
------------------------|------------------------|
---------------5-6-7----|------------------------|
--0--------L-0----------|---------3-4-5----5---0-|
------------------------|--3---------------------|


  E  S S Q    Q    T  T S S S    Q    S S S S Q    E.  S  
--------------5---------------|--------------------------|
-------------------2h-3-2-----|--------------------------|
--3--3-0-3----------------3-2-|-----------3-4-5----5---0-|
------------------------------|--3----3-0----------------|


  Q    E.  S S S E  S S S S    Q    S S S S Q    E.  S  
-------5--------------------|--------------------7-----|
----------------------------|--------------------------|
--3--------0-3-0-3--3-0-5-0-|-----------3-4-5--------0-|
----------------------------|--3----3-0----------------|


  Q    E.  S S S S S S S S S    Q    S S S S Q    E.  S  
-----------------------------|--------------------------|
-------------3-2-----3-2-----|--------------------------|
--3----3---0-----3-0-----3-2-|-----------3-4-5----5---0-|
-----------------------------|--3----3-0----------------|


  E.  S  S E  S S E  S S E  S    Q    S S S S Q    E.  S  
------------------------------|--------------------------|
------------------3------4----|--------------------------|
--3---3S----------------------|-----------3-4-5----5---0-|
---------0-0--0-1----1-2----2-|--3----3-0----------------|


  Q    E.  S S E.  Q       H        H           H        S E  S Q     
------------------------|--------------------|-----------------------|
---------------5---L----|--------------------|-----------------------|
--3----3---0-3----------|-----------5--------|--3--------0-3--3-3----|
------------------------|--3-----------------|-----------------------|


  Q.     S S H           H        S S S S Q       H        E  E  Q     
----------------------|------------------------|----------------------|
----------------------|------------------------|----------------------|
---------3-4-5--------|--3--------0-3-3-3-3----|-----------3--4--5----|
--3-------------------|------------------------|--3-------------------|


  H        S E  S S S S S    Q.     S S H           H        S S S S S S S S  
--------------------------|----------------------|---------------------------|
--------------------------|----------------------|-------------3-2---5-3-----|
--3--------L--------------|---------3-4-5--------|--3--------------3-----5-3-|
-------------0--0-1-0-2-0-|--3-------------------|---------------------------|


  Q.     S S H           H        E  E  S S S S    Q.     S S H         
----------------------|-------------------------|----------------------|
----------------------|-----------7-------------|----------------------|
---------3-4-5--------|--0-----------0--0-0-2-0-|---------3-4-5--------|
--3-------------------|-------------------------|--3-------------------|


  H        S S E  S S S S    Q.     S S H           H        E  E  S S S S  
--------------------------|----------------------|-------------------------|
--------------------------|----------------------|-----------7--7--7-5-----|
--3--------3-0-3--3-0-5-0-|---------3-4-5--------|--0------------------7-0-|
--------------------------|--3-------------------|-------------------------|


  Q.     S S Q    E.  S    S S S S S S S S S S S S S S S S  
------------------7-----|----------5-----------------------|
------------------------|------------------3-2-----5-3-----|
---------3-4-5--------0-|--3-3-3-3---3-3-0-----3-0-----5-3-|
--3---------------------|----------------------------------|


  Q    S S S S Q    E.  S    Q    E.  S S S E  S S S S  
--------------------------|----------------------------|
--------------------------|----------------------------|
-----------3-4-5----5---0-|--3----3---0-3-0-3--3-0-5-0-|
--3----3-0----------------|----------------------------|


  Q    S S S S Q    E.  S    E.  S  S E  S S E  S S E  S  
--------------------------|------------------------------|
--------------------------|------------------3------4----|
-----------3-4-5----5---0-|--3---3S----------------------|
--3----3-0----------------|---------0-0--0-1----1-2----2-|


  Q    S S S S Q    E  E     Q    E.  S S S S S S S S S  
--------------------------|-----------------------------|
--------------------------|-------------3-2-----3-2-----|
-----------3-4-5----5--0--|--3----3---0-----3-0-----3-2-|
--3----3-0----------------|-----------------------------|


  Q    S S S S Q    E  E     Q    Q    S  S S S S S S S  
--------------------------|-----------------------------|
--------------------------|---------------5-5-5-5-3-----|
-----------3-4-5----5--0--|--3----3----3S-----------5-3-|
--3----3-0----------------|-----------------------------|


  Q    S S S S Q    E.  S    Q    E.  S S E.  Q       Q    S S S S Q    E.  S  
--------------------------|------------------------|--------------------------|
--------------------------|---------------5---L----|--------------------------|
-----------3-4-5----5---0-|--3----3---0-3----------|-----------3-4-5----5---0-|
--3----3-0----------------|------------------------|--3----3-0----------------|


  Q    E.  S S E.  Q       Q    S S S S Q    E.  S    Q    E.  S S E.  Q     
------------------------|--------------------------|------------------------|
---------------5---L----|--------------------------|---------------5---L----|
--3----3---0-3----------|-----------3-4-5----5---0-|--3----3---0-3----------|
------------------------|--3----3-0----------------|------------------------|


  Q    S S S S Q    E.  S    Q    E.  S S E.  Q       Q    S S S S Q    E.  S  
--------------------------|------------------------|--------------------------|
--------------------------|---------------5---L----|--------------------------|
-----------3-4-5----5---0-|--3----3---0-3----------|-----------3-4-5----5---0-|
--3----3-0----------------|------------------------|--3----3-0----------------|


  Q    E.  S S E.  Q       Q    S S S S Q    E.  S    Q    E.  S S E.  Q     
------------------------|--------------------------|------------------------|
---------------5---L----|--------------------------|---------------5---L----|
--3----3---0-3----------|-----------3-4-5----5---0-|--3----3---0-3----------|
------------------------|--3----3-0----------------|------------------------|


  Q    S S S S Q    E.  S    Q    E.  S S E.  Q       Q    S S S S Q    E.  S  
--------------------------|------------------------|--------------------------|
--------------------------|---------------5---L----|--------------------------|
-----------3-4-5----5---0-|--3----3---0-3----------|-----------3-4-5----5---0-|
--3----3-0----------------|------------------------|--3----3-0----------------|


  Q    E.  S S E.  Q       Q    S S S S Q    E.  S    Q    E.  S S E.  Q     
------------------------|--------------------------|------------------------|
---------------5---L----|--------------------------|---------------5---L----|
--3----3---0-3----------|-----------3-4-5----5---0-|--3----3---0-3----------|
------------------------|--3----3-0----------------|------------------------|


  Q    S S S S Q    E.  S    Q    E.  S S E.  Q       Q    S S S S Q    E.  S  
--------------------------|------------------------|--------------------------|
--------------------------|---------------5---L----|--------------------------|
-----------3-4-5----5---0-|--3----3---0-3----------|-----------3-4-5----5---0-|
--3----3-0----------------|------------------------|--3----3-0----------------|


  Q    E.  S S E.  Q       Q    S S S S Q    E.  S    Q    E.  S S E.  Q     
------------------------|--------------------------|------------------------|
---------------5---L----|--------------------------|---------------5---L----|
--3----3---0-3----------|-----------3-4-5----5---0-|--3----3---0-3----------|
------------------------|--3----3-0----------------|------------------------|


  Q    S S S S Q    E.  S    Q    E.  S S E.  Q       Q    S S S S Q    E.  S  
--------------------------|------------------------|--------------------------|
--------------------------|---------------5---L----|--------------------------|
-----------3-4-5----5---0-|--3----3---0-3----------|-----------3-4-5----5---0-|
--3----3-0----------------|------------------------|--3----3-0----------------|


  Q    E.  S S E.  Q       Q    S S S S Q    E.  S    Q    E.  S S E.  Q     
------------------------|--------------------------|------------------------|
---------------5---L----|--------------------------|---------------5---L----|
--3----3---0-3----------|-----------3-4-5----5---0-|--3----3---0-3----------|
------------------------|--3----3-0----------------|------------------------|


  Q    S S S S Q    E.  S    Q    E.  S S E.  Q       Q    S S S S Q    E.  S  
--------------------------|------------------------|--------------------------|
--------------------------|---------------5---L----|--------------------------|
-----------3-4-5----5---0-|--3----3---0-3----------|-----------3-4-5----5---0-|
--3----3-0----------------|------------------------|--3----3-0----------------|


  Q    E.  S S E.  Q       Q    S S S S Q    E.  S    Q    E.  S S E.  Q     
------------------------|--------------------------|------------------------|
---------------5---L----|--------------------------|---------------5---L----|
--3----3---0-3----------|-----------3-4-5----5---0-|--3----3---0-3----------|
------------------------|--3----3-0----------------|------------------------|


  Q    S S S S Q    E.  S    Q    E.  S S E.  Q       Q    S S S S Q    E.  S  
--------------------------|------------------------|--------------------------|
--------------------------|---------------5---L----|--------------------------|
-----------3-4-5----5---0-|--3----3---0-3----------|-----------3-4-5----5---0-|
--3----3-0----------------|------------------------|--3----3-0----------------|


  Q    E.  S S E.  Q       Q    S S S S Q    E.  S    W                 
------------------------|--------------------------|-------------------|
---------------5---L----|--------------------------|-------------------|
--3----3---0-3----------|-----------3-4-5----5---0-|-------------------|
------------------------|--3----3-0----------------|--3----------------|


  W                  
-------------------||
-------------------||
-------------------||
-------------------||




Duration Legend
---------------
W - whole
H - half
Q - quarter
E - 8th
S - 16th
T - 32nd
X - 64th
. - note dotted
|-n-|  - n-tuplets


Tablature Legend
----------------
L - tied note
x - dead note
g - grace note
(n) - ghost note
> - accentuded note
NH - natural harmonic
AH - artificial harmonic
TH - tapped harmonic
SH - semi harmonic
PH - pitch harmonic
h - hammer on
p - pull off
b - bend
br - bendRelease
pb - preBend
pbr - preBendRelease
brb - bendReleaseBend
\n/ - tremolo bar dip
\n - tremolo bar dive
-/n - tremolo bar Release up
/n\ - tremolo bar inverted dip
/n - tremolo bar return
-\n - tremolo bar Release down
S - shift slide
s - legato slide
/ -  slide into from below or out of upwards
\ -  slide into from above or out of downwards
~ - vibrato
W - wide vibrato
tr - trill
TP - tremolo picking
T - tapping
S - slap
P - pop
< - fade in
^ - brush up
v - brush down
            
Submit corrections

comments powered by Disqus
↑ Back to top | Guns N Roses Bass for Knockin On Heavens Door. Lyrics for acoustic guitar and electric guitar. 1 Tablatures and chords are parodies/interpretations of the original songs. You may use it for private study, scholarship, research or language learning purposes only