>
 >
Knocking On Heavens Door

Knocking On Heavens Door Guitar Tabs

Guns N Roses - Knocking On Heavens Door chords, tabs, tablatures, lyrics

Guitar lessons | Add/correct | Request | Top 50 tabs Artists:  A B C D E F G H I J K L M N O P Q R S T U V W X Y Z 0-9

Knocking On Heavens Door Guitar Tabs – Guns N Roses

CD, Sheet music, Poster

Do you like Knocking On Heavens Door? Share with your friends now
Tabs
This solo is realy easy you just have to listen to the song over and
over again.  I cant figure out the second solo when I play it I just 
make up my own as long as it fits.


e----------------------------------------------------------------------------------------------------
b---------------------15-------------------------------------------15/17--15--13--12--13/15--
g---12--14^--12--14-------14^--12--12~~~~~---------------------12----------------------
d------------------------------------------------------13--14------------------------------------
a-------------------------------------------------------------------------------------------------
e---------------------------------------------------------------------------------------------------


e-------------------------------15----------------------------------15--17---17^-17^---15~~~~
b--13--12--13--12-------12--13------13--12---15--15/17------------------------------------
g---------------------------------------------------------------------------------------------------
d------------------14--------------------------------------------------------------------------------
a----------------------------------------------------------------------------------------------------
e---------------------------------------------------------------------------------------------------


e----20-20--19--20--19--20--20--19--20-------------------------------------------------
b-------------------------------------------------19\17--17--19--17--------------------------
g-------------------------------------------------------------------------19--17------------------
d-----------------------------------------------------------------------------------19^--17--17~~
a-------------------------------------------------------------------------------------------------
e---------------------------------------------------------------------------------------------------





Comments


Popular Guns N Roses tabs & chords
New Rose 2 Bass Tabs
Sweet Child O Mine Intro Bass Tabs
I Used To Love Her Chords
I Used To Love Her Tabs
If The World Intro Tabs
Knockin On Heavens Door 5 Tabs
November Rain Live Tabs
Used To Love Her 1 Tabs
Yesterdays Tabs
Nightrain Ukulele


Song lyrics



↑ Back to top | Tablatures and chords are parodies/interpretations of the original songs. You may use it for private study, scholarship, research or language learning purposes only
© 2014 AZChords.com Contact us | Privacy policy | DMCA | Add/correct tabs | Request tabs | Top 50 tabs