>
 >
Dont Damn Me

Dont Damn Me Bass Tabs

Guns N Roses - Dont Damn Me chords, tabs, tablatures, lyrics

Guitar lessons | Add/correct | Request | Top 50 tabs Artists:  A B C D E F G H I J K L M N O P Q R S T U V W X Y Z 0-9

Dont Damn Me Bass Tabs – Guns N Roses

CD, Sheet music, Poster

Do you like Dont Damn Me? Share with your friends now
Bass TabsDrum Tabs
                                Don't Damn Me                                   


                                                                    Guns N'Roses
DUFF



                                                                           
F#||-------------------|-------------------------|------------------------|
C#||-------------------|-------------------------|------------------------|
G#||----------------9--|----9--7-----9-----6--7--|----7-------------------|
D#||-------------------|----------9-----9--------|-------9--7--5--5----2--|


                                                                            
-----------------------|-------------------------|-------------------------|
-----------------------|-------------------------|-------------------------|
-----------------------|-------4--2-----------9--|----9--7-----9-----6--7--|
----2--5----2----4--5--|----5--------0--0--0-----|----------9-----9--------|


                                                                           
------------------------|-----------------------|-------------------------|
------------------------|-----------------------|-------------------------|
----7-------------------|-----------------------|-------4--2--------------|
-------9--7--5--5----2--|----2--5----2----4--5--|----5--------0--0--0--2--|


                                                                 
-------------------|------------------------|-------------------|
-------------------|------------------------|-------------------|
-------------------|------------------------|-------------------|
----------------5--|----5--5----0--0--1--2--|----------------5--|


                                                                      
------------------------|-------------------|------------------------|
------------------------|-------------------|------------------------|
------------7--7--8--9--|-------------------|------------------------|
----5--5----------------|----------------5--|----5--5----0--0--1--2--|


                                                                       
-------------------|------------------------|-------------------------|
-------------------|------------------------|-------------------------|
-------------------|------------7--7--8--9--|----9--7-----9-----6--7--|
----------------5--|----5--5----------------|----------9-----9--------|


                                                                           
------------------------|-----------------------|-------------------------|
------------------------|-----------------------|-------------------------|
----7-------------------|-----------------------|-------4--2-----------9--|
-------9--7--5--5----2--|----2--5----2----4--5--|----5--------0--0--0-----|


                                                                           
-------------------------|------------------------|-----------------------|
-------------------------|------------------------|-----------------------|
----9--7-----9-----6--7--|----7-------------------|-----------------------|
----------9-----9--------|-------9--7--5--5----2--|----2--5----2----4--5--|


                                                                       
-------------------------|-------------------|------------------------|
-------------------------|-------------------|------------------------|
-------4--2-----------9--|-------------------|------------------------|
----5--------0--0--0-----|----------------5--|----5--5----0--0--1--2--|


                                                                 
-------------------|------------------------|-------------------|
-------------------|------------------------|-------------------|
-------------------|------------7--7--8--9--|-------------------|
----------------5--|----5--5----------------|----------------5--|


                                                                     
------------------------|-------------------|-----------------------|
------------------------|-------------------|-----------------------|
------------------------|----------------0--|----0----0--------7\---|
----5--5----0--0--1--2--|-------------------|------------9--7-------|


                                                                             
------------------------|--------------------------|------------------------|
------------------------|--------------------------|------------------------|
--0--5--5--0--5\-----0--|--0--5--5--0--5-----------|-----7--7-----7----7----|
------------------------|-----------------5--6--7--|--7--------7------------|


                                                                          
---------------------|------------------------|--------------------------|
---------------------|------------------------|--------------------------|
--7---------------0--|--0--5--5--0--5\-----0--|--0--5--5--0--5-----------|
---------0-----------|------------------------|-----------------5--5--6--|


                                                                           
------------------------|-----------------------|-------------------------|
------------------------|-----------------------|-------------------------|
-----7--7-----7----7----|--7--7--------------9--|----9--7-----9-----6--7--|
--7--------7------------|------------9--9-------|----------9-----9--------|


                                                                           
------------------------|-----------------------|-------------------------|
------------------------|-----------------------|-------------------------|
----7-------------------|-----------------------|-------4--2-----------9--|
-------9--7--5--5----2--|----2--5----2----4--5--|----5--------0--0--0-----|


                                                                           
-------------------------|------------------------|-----------------------|
-------------------------|------------------------|-----------------------|
----9--7-----9-----6--7--|----7-------------------|-----------------------|
----------9-----9--------|-------9--7--5--5----2--|----2--5----2----4--5--|


                                                                       
-------------------------|-------------------|------------------------|
-------------------------|-------------------|------------------------|
-------4--2-----------9--|-------------------|------------------------|
----5--------0--0--0-----|----------------5--|----5--5----0--0--1--2--|


                                                                 
-------------------|------------------------|-------------------|
-------------------|------------------------|-------------------|
-------------------|------------7--7--8--9--|-------------------|
----------------5--|----5--5----------------|----------------5--|


                                                                     
------------------------|-------------------|-----------------------|
------------------------|-------------------|-----------------------|
------------------------|-------------------|----0----0--------7\---|
----5--5----0--0--1--2--|----------------5--|------------9--7-------|


                                                                             
------------------------|--------------------------|------------------------|
------------------------|--------------------------|------------------------|
--0--5--5--0--5\-----0--|--0--5--5--0--5-----------|-----7--7-----7----7----|
------------------------|-----------------5--6--7--|--7--------7------------|


                                                                          
---------------------|------------------------|--------------------------|
---------------------|------------------------|--------------------------|
--7---------------0--|--0--5--5--0--5\-----0--|--0--5--5--0--5-----------|
---------0-----------|------------------------|-----------------5--5--6--|


                                                                           
------------------------|-----------------------|-------------------------|
------------------------|-----------------------|-------------------------|
-----7--7-----7----7----|--7--7--------------9--|----9--7-----9-----6--7--|
--7--------7------------|------------9--9-------|----------9-----9--------|


                                                                           
------------------------|-----------------------|-------------------------|
------------------------|-----------------------|-------------------------|
----7-------------------|-----------------------|-------4--2-----------9--|
-------9--7--5--5----2--|----2--5----2----4--5--|----5--------0--0--0-----|


                                                                           
-------------------------|------------------------|-----------------------|
-------------------------|------------------------|-----------------------|
----9--7-----9-----6--7--|----7-------------------|-----------------------|
----------9-----9--------|-------9--7--5--5----2--|----2--5----2----4--5--|


                                                                          
-------------------------|-----------------------|-----------------------|
-------------------------|-----------------------|-----------------------|
-------4--2-----------9--|--5--------0--5--4--2--|--0--------------------|
----5--------0--0--0-----|-----------------------|-----------0--3--2--0--|


                                                                          
----------------------|--------------------------|-----------------------|
----------------------|--------------------------|-----------------------|
--7----------------7--|-----7--7--7-----7--5--4--|--5--------0--5--4--2--|
-----------0----0-----|--0-----------0-----------|-----------------------|


                                                                           
-----------------------|-----------------------|--------------------------|
-----------------------|-----------------------|--------------------------|
--0--------------------|--7-----------7--7--7--|-----7--7--7-----7--5--4--|
-----------0--3--2--0--|-----------0-----------|--0-----------0-----------|


                                                                       
-----------------------|-----------------------|----------------------|
-----------------------|-----------------------|----------------------|
--5--------0--5--4--2--|--0--------------------|--------------7-------|
-----------------------|-----------0--3--2--0--|--0--------0-------0--|


                                                                          
-------------------------|-----------------------|-----------------------|
-------------------------|-----------------------|-----------------------|
-------7--------7--5--4--|--5--------0--5--4--2--|--0--------------------|
--0-------0--0-----------|-----------------------|-----------0--3--2--0--|


                                                                           
-----------------------|--------------------------|-----------------------|
-----------------------|--------------------------|-----------------------|
--7-----------7--7--7--|-----7--7--7-----7--5--4--|--5--------0--5--4--2--|
-----------0-----------|--0-----------0-----------|-----------------------|


                                                                         
-----------------------|----------------------|-------------------------|
-----------------------|----------------------|-------------------------|
--0--------------------|--------------7-------|-------7--------7--5--4--|
-----------0--3--2--0--|--0--------0-------0--|--0-------0--0-----------|


                                                                           
-----------------------|-----------------------|--------------------------|
-----------------------|-----------------------|--------------------------|
--5--------0--5--4--2--|--0--------------------|--------------------------|
-----------------------|-----------0--3--2--0--|--0--0--0--0--0--0--0--0--|


                                                                 
--------------------------|------------------|------------------|
--------------------------|------------------|------------------|
--7--7--7--7--7--7--8--9\-|------------------|------------------|
--------------------------|------------------|------------------|


                                                                            
------------------|------------------|------------------|------------------|
------------------|------------------|------------------|------------------|
------------------|------------------|------------------|------------------|
------------------|------------------|------------------|------------------|


                                                                 
------------------|-------------------|-------------------------|
------------------|-------------------|-------------------------|
------------------|----------------9--|----9--7-----9-----6--7--|
------------------|-------------------|----------9-----9--------|


                                                                           
------------------------|-----------------------|-------------------------|
------------------------|-----------------------|-------------------------|
----7-------------------|-----------------------|-------4--2-----------9--|
-------9--7--5--5----2--|----2--5----2----4--5--|----5--------0--0--0-----|


                                                                           
-------------------------|------------------------|-----------------------|
-------------------------|------------------------|-----------------------|
----9--7-----9-----6--7--|----7-------------------|-----------------------|
----------9-----9--------|-------9--7--5--5----2--|----2--5----2----4--5--|


                                                                       
-------------------------|-------------------|------------------------|
-------------------------|-------------------|------------------------|
-------4--2--------------|-------------------|------------------------|
----5--------0--0--0--2--|----------------5--|----5--5----0--0--1--2--|


                                                                 
-------------------|------------------------|-------------------|
-------------------|------------------------|-------------------|
-------------------|------------7--7--8--9--|-------------------|
----------------5--|----5--5----------------|----------------5--|


                                                                      
------------------------|-------------------|------------------------|
------------------------|-------------------|------------------------|
------------------------|-------------------|------------7--7--8--9--|
----5--5----0--0--1--2--|----------------5--|----5--5----------------|


                                                                
-------------------|-------------------|-----------------------|
-------------------|-------------------|-----------------------|
----9--------------|-------------------|-----------------------|
-------------------|----------------2--|------2----2--2--2--0--|


                                                                          
------------------------|-------------------------|----------------------|
------------------------|-------------------------|----------------------|
------------------------|-------------------------|----------------------|
------0--0--5--5--2--0--|--2----2--2--2--2--2--0--|------0----5--5----2--|


                                                                          
------------------------|-----------------------|------------------------|
------------------------|-----------------------|------------------------|
------------------------|-----------------------|------------------------|
------2--2--2--2--2--0--|------0--0--5--5----2--|------2--2--2--2--2--2--|


                                                                         
-----------------------|-----------------------|------------------------|
-----------------------|-----------------------|------------------------|
--------------------5--|------5----5--5--5--0--|------0--0--0--0--0-----|
--5----5--0--0---------|-----------------------|---------------------2--|


                                                                           
------------------------|------------------------|------------------------|
------------------------|------------------------|------------------------|
------------------------|---------------------5--|------5--5--5--5--5-----|
------2--2--0--2--0--2--|------2--2--2--2--0-----|---------------------5--|


                                                                          
-----------------------|------------------------|------------------------|
-----------------------|------------------------|------------------------|
-----------------------|------------------------|---------------------5--|
----5--5--5--5\-----2--|------2--2--0--2--0--2--|------2--2--2--2--0-----|


                                                                        
------------------------|----------------------|-----------------------|
------------------------|----------------------|-----------------------|
------5--5--5--5--5-----|----------------------|-----------------------|
---------------------5--|------5--5--5\-----2--|------2--2--0--2----2--|


                                                                           
------------------------|------------------------|------------------------|
------------------------|------------------------|------------------------|
------------------4--5--|------5--5--5--5--5/-7--|------7--7--7--7--7\-4--|
------2--2--2--2--------|------------------------|------------------------|


                                                                             
------------------------|-------------------------|-------------------------|
------------------------|-------------------------|-------------------------|
------4--4--4--4--4/-7--|----7--7--7--7--7--7/-9--|----9--7-----9-----6--7--|
------------------------|-------------------------|----------9-----9--------|


                                                                               
--------------------------|-------------------------|-------------------------|
--------------------------|-------------------------|-------------------------|
--7--7--------0-----0-----|----------------------0--|----0--4--6--7--------9--|
--------9--7-----7-----2--|----2--5--2--2--2--4-----|----------------0--0-----|


                                                                               
-------------------------|--------------------------|-------------------------|
-------------------------|--------------------------|-------------------------|
----9--7-----9-----6--7--|--7--7--------0-----0-----|----------------------0--|
----------9-----9--------|--------9--7-----7-----2--|----2--5--2--2--2--4-----|


                                                                               
-------------------------|-------------------------|--------------------------|
-------------------------|-------------------------|--------------------------|
----0--4--6--7--------9--|----9--7-----9-----6--7--|--7--7--------0-----0-----|
----------------0--0-----|----------9-----9--------|--------9--7-----7-----2--|


                                                                              
-------------------------|-------------------------|-------------------------|
-------------------------|-------------------------|-------------------------|
----------------------0--|----0--4--6--7--------9--|----9--7-----9-----6--7--|
----2--5--2--2--2--4-----|----------------0--0-----|----------9-----9--------|


                                                                               
--------------------------|-------------------------|-------------------------|
--------------------------|-------------------------|-------------------------|
--7--7--------0-----0-----|----------------------0--|----0--4--6--7--------9--|
--------9--7-----7-----2--|----2--5--2--2--2--4-----|----------------0--0-----|


                                                                               
-------------------------|--------------------------|-------------------------|
-------------------------|--------------------------|-------------------------|
----9--7-----9-----6--7--|--7--7--------0-----0-----|----------------------0--|
----------9-----9--------|--------9--7-----7-----2--|----2--5--2--2--2--4-----|


                                                                               
-------------------------|-------------------------|--------------------------|
-------------------------|-------------------------|--------------------------|
----0--4--6--7--------9--|----9--7-----9-----6--7--|--7--7--------0-----0-----|
----------------0--0-----|----------9-----9--------|--------9--7-----7-----2--|


                                                                              
-------------------------|-------------------------|-------------------------|
-------------------------|-------------------------|-------------------------|
----------------------0--|----0--4--6--7--------9--|----9--7-----9-----6--7--|
----2--5--2--2--2--4-----|----------------0--0-----|----------9-----9--------|


                                                                               
--------------------------|-------------------------|-------------------------|
--------------------------|-------------------------|-------------------------|
--7--7--------0-----0-----|----------------------0--|----0--4--6--7--------9--|
--------9--7-----7-----2--|----2--5--2--2--2--4-----|----------------0--0-----|


                                                                               
-------------------------|--------------------------|-------------------------|
-------------------------|--------------------------|-------------------------|
----9--7-----9-----6--7--|--7--7--------0-----0-----|----------------------0--|
----------9-----9--------|--------9--7-----7-----2--|----2--5--2--2--2--4-----|


                                                                        
-------------------------|----------------------|----------------------|
-------------------------|----------------------|----------------------|
----0--4--6--7--------9--|--9----9----7---------|--9----4----6----7----|
----------------0--0-----|-----------------9----|----------------------|


                                                                                
-------------------|-------------------|-------------------|-------------------|
-------------------|-------------------|-------------------|-------------------|
--7----------------|-------------------|-------------------|--7----------------|
-------------------|--7----------------|--5----------------|-------------------|


                    
------------------||
------------------||
------------------||
------------------||





Comments


Popular Guns N Roses tabs & chords
Breakdown Bass Tabs
Mr Brownstone 3 Bass Tabs
Attitude Chords
Civil War 1 Chords
Dead Horse Chords
Locomotive Drum Tabs
Coma 1 Tabs
Double Talkin Live Tabs
Mr Brownstone 4 Tabs
Sweet Child O' Mine Tabs


Song lyrics



↑ Back to top | Tablatures and chords are parodies/interpretations of the original songs. You may use it for private study, scholarship, research or language learning purposes only
© 2014 AZChords.com Contact us | Privacy policy | DMCA | Add/correct tabs | Request tabs | Top 50 tabs