>
 >
Doxology

Doxology Guitar Tabs

Gungor - Doxology chords, tabs, tablatures, lyrics

Guitar lessons | Add/correct | Request | Top 50 tabs Artists:  A B C D E F G H I J K L M N O P Q R S T U V W X Y Z 0-9

Doxology Guitar Tabs – Gungor

CD, Sheet music, Poster

Do you like Doxology? Share with your friends now
ChordsTabs
Doxology By Micheal Gungor
TUNING: Drop D, DADGBE

it's not an exact match. There are a few differences here and there, either because I
couldn't quite figure them out, or they were too hard, or I found something that worked 
a little better. this is my first tab, and I'm very impatient, so it's a little sloppy, but
it is very accurate. Enjoy!



E|-----------------|-----------------|-----------------|-------------------|
B|-----------------|-----------------|-----------------|-------------------|
G|-----------------|-----------------|-----------------|-------------------|
D|-----4-2-4---4---|-----4-2-4---4---|-----5-4-5---5---|-----5-4-5---5-----|
A|---0-------0---0-|---0-------0---0-|---1-------1---1-|---1-------1---1---|
D|-0---------------|-0---------------|-0---------------|-0-----------------|


E|-----------------|-----------------|-----------------|-------------------|
B|-----------------|-----------------|-----------------|-------------------|
G|-----------------|-----------------|-----7---7---6---|-4---2---7---9-----|
D|-----5-4-5---5---|-----5-4-5---5---|-----------------|-------------------|
A|---4-------4---4-|---4-------4---4-|---5---5---5---4-|---2---0---5---7---|
D|-0---------------|-0---------------|-0---------------|-------------------|



E|-----------------|-----------------|--------------------------|
B|-----------------|-----------------|--------------------------|
G|-----------------|-----------------|-----11-----11-----11-----|
D|-----4-2-4---4---|-----4-2-4---4---|--------0------0------0---|
A|---0-------0---0-|---0-------0---0-|---0------9------9------9-|
D|-0---------------|-0---------------|-0------------------------|

E|----------------------------|-------------------------|-----------------|
B|----------------------------|-------------------------|-----------------|
G|-9-----7-----12------11-----|-9-----9-----9-----9-----|-9-----9---------|
D|---0-----0------0-------0---|---0-----0-----0-----0---|---0-----0-------|
A|-----7-----5------10------9-|-----7-----7-----7-----7-|-----7-----7-----|
D|----------------------------|-------------------------|-----------------|





E|-------------------|-----------------|-----------------|-----------------|
B|-------3---5---7---|-5---3---0---2---|-----3-2-3---3---|-----3-2-3---3-3-|
G|-----2-----4---6---|-4---2---0---2---|-----------------|-----------------|
D|---0-----0---0---0-|---0---0---0---2-|---4-------4---4-|---4-------4-----|
A|-------------------|-------------0---|-2---------------|-2---------------|
D|-0-----------------|---------5-------|-----------------|-----------------|



E|-------------------------|-------0---0---|-----------5---2---2---|
B|-----------11----7---3---|-5-7-8---7---5-|---------3-----3---3---|
G|--------10-------6---2---|-4-6-7---0---0-|-------2-----2---2---2-|
D|-----10-------10---0---0-|-----8---7---5-|-----0---------0---4---|
A|---0---------------------|---------------|---0-------------------|
D|-0-----------------------|---------------|-0---------------------|



E|---2-3---2-------|-------------------|---------------|
B|-5---3-3---3-5---|-3-----3---------3-|-----------3---|
G|-0---3---2-------|-----0---------0---|---------2-----|
D|-5-----------5---|---3-------0h2-----|-----2/4-------|
A|---------------0-|-1-------3---------|---0-----------|
D|-----------------|-------------------|-0-------------|

E|-----------------|------------------|------------------|--------------------|
B|-----------------|------------------|------------------|--------------------|
G|-----------------|------------------|------------------|--------------------|
D|-----------------|------------------|------------------|-------------/5-3-0-|
A|-----------------|------------------|------------------|--------------------|
D|-0xx0x0x0xxxx35-|-0xx0x0x0xxxx5--3-|-0xx0x0x0xxxx3--5-|0xx0x0x0xxxx--------|





E|-----------------|-----------------|-----------------|-------------------(7)-|
B|-----------------|-----------------|-----------------|-------------------(7)-|
G|-----------------|-----------------|-----------------|-------------------(7)-|
D|------------3--5-|------------5--3-|------------3--5-|-----------0h3p0---(7)-|
A|----3x3x3xxx3--5-|----3x3x3xxx5--3-|----3x3x3xxx3--5-|------0h2h5--------(7)-|
D|-0xx--------3--5-|-0xx--------5--3-|-0xx--------3--5-|-0h3h5-------------(7)-|





E|-----------------|----------------|----------------|---------------------------|
B|-----------------|----------------|----------------|---------------------------|
G|-----------------|----------------|----------------|---------------------------|
D|-------------3--5|------------5--3|------------3--5|-----------0h3p0-----------|
A|----5x3x5----3--5|----5x3x5---5--3|----5x3x5---3--5|------0h3p0-----0h3p0------|
D|-0xx-----xxxx3--5|-0xx----xxxx5--3|-0xx----xxxx3--5|-0h3p0---------------0h3p0-|





E|-------------------------------|-----------------|---------------------|
B|-------------------------------|-----------------|---------------------|
G|---7--7--7--6--4--2--6--7--7/9-|-----------------|---------------------|
D|---0--0--0--0--0--0--0--0--0/0-|------------3--5-|------------5--3-----|
A|---5--5--5--4--2--0--4--5--5/7-|----5x3x5---3--5-|----5x3x5---5--3-----|
  D|---0--0--0--0--0--0--0--0--0/0-|-0xx--------3--5-|-0xx--------5--3---|




E|---------------------------------|-----------------|-----------------|
B|---------------------------------|-----------------|-----------------|
G|---11--11--11--9--7--12--11--7/9-|-----------------|-----------------|
D|----0---0---0--0--0---0---0--0/0-|------------3--5-|------------3--5-|
A|----9---9---9--7--5--10---9--5/7-|----5x3x5---3--5-|----5x3x5---3--5-|
D|----0---0---0--0--0---0---0--0/0-|-0xx--------3--5-|-0xx--------3--5-|


E|----------------------|-----------------------|-----------------------|
B|--3--5--7--5--3--3--2-|-----------------------|-----------------------|
G|--2--4--6--4--2--4--2-|-----------------------|-----------------------|
D|--0--0--0--0--0--0--0-|------------------3--5-|------------------3--5-|
A|--0--0--0--0--0--0--0-|-0h3h5x5--0h3h5x5-3--5-|-0h3h5x5--0h3h5x5-3--5-|
D|--0--0--0--0--0--5--0-|------------------3--5-|------------------3--5-|




E|-----------------------|-------------------------------|
B|-----------------------|-------------------------------|
G|-----------------------|-------------------------------|
D|------------------3--5-|-------------------------0h2p0-|
A|-0h3h5x5--0h3h5x5-3--5-|-------0h2p0-0h3p0-0h5p0-------|
D|------------------3--5-|-0h3p0-------------------------|




E|--5---2---2----------------------|-------------------------------|
B|--3---3---3--5--7--8--7--5-5-5-5-|-------------------------------|
G|--2---2---2--4--6--7--0--0-0-0-0-|---------------------6-7-6-----|
D|----------4-----------7--5-5-5-5-|----0h7--6-----6-7-9-------9-7-|
A|---------------------------------|-----------7-9-----------------|
D|---------------------------------|-0h7---------------------------|




E|---------------------------|-------------------------------|
B|---------------------------|-------------------------------|
G|---------------------6-7-6-|---------------------6-7-6-----|
D|----0h7--6-----6-7-9-------|----0h7--6-----6-7-9-------9-7-|
A|-----------7-9-------------|-----------7-9-----------------|
D|-0h7-----------------------|-0h7---------------------------|




E|---------------------------|--------------------------------------------(7)|
B|---------------------------|--------------------------------------------(7)|
G|---------------------6-7-6-|--------------------------------------------(7)|
D|----0h7--6-----6-7-9-------|----0h7--6---------0h5----------0h3---------(7)|
A|-----------7-9-------------|-----------7-9----------55h7--------33h5----(7)|
D|-0h7-----------------------|-0h7------------0h7----------3h5---------0--(7)|




E|-----------------------|-----------------------|-----------------------|
B|-----------------------|-----------------------|-----------------------|
G|-----------------------|-----------------------|-----------------------|
D|------------------3--5-|------------------5--3-|------------------3--5-|
A|-0h3h5x5--0h3h5x5-3--5-|-0h3h5x5--0h3h5x5-5--3-|-0h3h5x5--0h3h5x5-3--5-|
D|------------------3--5-|------------------5--3-|------------------3--5-|




E|----------------------|---5--2--2----------------|--------------------------|
B|----------------------|---3--3--3--5--7--8--7--5-|-3-3-3-3-333333333333-3-3-|
G|----------------------|---2--2--2--4--6--7--0--0-|-0-0-0-0-000000000000-0-0-|
D|---------------/13-12-|---------4-----------7--5-|-1-1-1-1-111333111333-1-3-|
A|-0h3h5x5--3-5---------|--------------------------|--------------------------|
D|----------------------|--------------------------|--------------------------|




E|-x--x------xxxx----x---|-xxxx-----------xxxx----------|-x--x------xxxx----x---|
B|-x--x---6--xxxx--4-x-6-|-xxxx--10101010-xxxx-12121212-|-x--x---6--xxxx--4-x-6-|
G|-x--x---7--xxxx--5-x-7-|-xxxx---0-0-0-0-xxxx--0-0-0-0-|-x--x---7--xxxx--5-x-7-|
D|-x--x---0--xxxx--0-x-0-|-xxxx---0-0-0-0-xxxx--0-0-0-0-|-x--x---0--xxxx--0-x-0-|
A|-x--x---0--xxxx--4-x-0-|-xxxx---8-8-8-8-xxxx-10101010-|-x--x---0--xxxx--4-x-0-|
D|-x--x------xxxx----x---|-xxxx-----------xxxx----------|-x--x------xxxx----x---|




E|--------------------------|-x--x------xxxx----x---|--------------------------|
B|-101010101212121213131313-|-x--x---6--xxxx--4-x-6-|-121212121313131315151515-|
G|--0-0-0-0-0-0-0-0-0-0-0-0-|-x--x---7--xxxx--5-x-7-|--0-0-0-0-0-0-0-0-0-0-0-0-|
D|--0-0-0-0-0-0-0-0-0-0-0-0-|-x--x---0--xxxx--0-x-0-|--0-0-0-0-0-0-0-0-0-0-0-0-|
A|--8-8-8-81010101011111111-|-x--x---0--xxxx--4-x-0-|-101010101111111113131313-|
D|--------------------------|-x--x------xxxx----x---|--------------------------|




E|-x-x------xxxx----x---|---------------------------------|
B|-x-x---6--xxxx--4-x-6-|-13131313151515151717171717171717|
G|-x-x---7--xxxx--5-x-7-|--0-0-0-0-0-0-0-0-0-0-0-0-0-0-0-0|
D|-x-x---0--xxxx--0-x-0-|--0-0-0-0-0-0-0-0-0-0-0-0-0-0-0-0|
A|-x-x---0--xxxx--4-x-0-|-11111111131313131515151515151515|
D|-x-x------xxxx----x---|---------------------------------|




E|--------------------------------|-----------------------|--------------|
B|15151515131313131212121210101010|88887777555533333333---|-11---8---8---|
G|-0-0-0-0-0-0-0-0-0-0-0-0-0-0-0-0|00000000000000000000---|--8---8---8---|
D|-0-0-0-0-0-0-0-0-0-0-0-0-0-0-0-0|00000000000000000000---|--8---8---8---|
A|131313131111111110101010-8-8-8-8|66665555333311111111---|---------10---|
D|--------------------------------|-----------------------|---------10---|




E|--------------------------------|--------------------------------------|
B|-10---7---7---9---11--12--11--9-|-9--11--12--11--9--9---11--12--11--9--|
G|--7---7---7---8---8---8---8---8-|-9--9---9---9---9--10--10--10--10--10-|
D|--7---7---7---------------------|--------------------------------------|
A|----------9---------------------|--------------------------------------|
D|--------------------------------|--------------------------------------|



E|------------------------------------|----------------------------------------|
B|-9--11--12--11--9--9--11--12--11--9-|-9--11--12--11--9--8--7--6--5--4--3--2--|
G|-9--9---9---9---9--8--8---8---8---8-|-7--7---7---7---7--6--5--4--3--2--1--0--|
D|------------------------------------|----------------------------------------|
A|------------------------------------|----------------------------------------|
D|------------------------------------|----------------------------------------|





E|-5---2---2----------------------------|----------------------------------|
B|-3---3---3--5--7--8--7--5---3-----3---|----------------------------------|
G|-2---2---2--4--6--7--0--0---0-----0---|----------------------------------|
D|---------4-----------7--5---3-----3---|----------------------------------|
A|--------------------------------------|------0h2p0-0h3p0-----0h2p0-0h3p0-|
D|--------------------------------------|--0h3-------------0h3-------------|




E|-------------------------------------(7)||
B|-------------------------------------(7)||
G|-------------------------------------(7)||
D|-------------------------------------(7)||
A|-----0h2p0-0h3p0-----0h2p0-0h3p0-----(7)||
D|-0h3-------------0h3-----------------(7)||





Comments


Popular Gungor tabs & chords
Beautiful Things 6 Chords
People Of God 2 Chords
Please Be My Strength Chords
Vous Etes Mon Coeur You Are My Heart Chords
When Death Dies Chords
You Are The Beauty Chords
Brighter Day Intro Tabs
Dry Bones Ukulele
Every Breath Ukulele
You Are The Light Ukulele


Song lyrics



↑ Back to top | Tablatures and chords are parodies/interpretations of the original songs. You may use it for private study, scholarship, research or language learning purposes only
© 2014 AZChords.com Contact us | Privacy policy | DMCA | Add/correct tabs | Request tabs | Top 50 tabs