» » »

Beautiful Things Tabs (ver.1)

Artists:  A B C D E F G H I J K L M N O P Q R S T U V W X Y Z # 

Beautiful Things Tabs (ver.1)

Gungor
Rating:
3/5 (6 votes)

Tabs too difficult? Try these video lessons and learn fast.
                This tab is 99% accurate, but I can tell you now make sure to read how to play 
each chord before playing, because the G is not the tradition G everyone knows.

Chords:
    D   D   G  G/C# A/G
E|--x---2---x---x---x--|
B|--3---3---3---3---3--|
G|--2---2---4---6---2--|
D|--0---0---0---0---0--|
A|--0---0---x---x---2--|
D|--0---0---5---5---0--|

Key:
x  = mute
/  = slide
() = optional

Intro:
E|--------------------------------|
B|--3---3---3---3--------(2)------|
G|--4---4---6---6-----------------|
D|----0---0---0-------2/4---------|
A|------------------0-------------|
D|--5-------------0---------------|


Verse 1:
E|-------------------------------------------------------------------|
B|--3---3---3---3-------3-------------3---3---3---3-----3------------|
G|--4---4---6---6-------2-------------4---4---6---6-----2------------|
D|----0---0---0---0-------0-2-4-2-0-----0---0---0---------0-2-4-2-0--|
A|--------------------0-------------------------------0--------------|
D|--5---------------0---------------5---------------0----------------|

E|-------------------------------------------------------------------|
B|--3---3---3---3----3---3---3---3----3---3---3---3--------(2)-------|
G|--4---4---6---6----2---2---2---2----4---4---6---6------------------|
D|----0---0---0---0----0---0---0--------0---0---0-------2/4----------|
A|-------------------2-------0------------------------0--------------|
D|--5-------------------------------5---------------0----------------|
(Repeat Verse 1 for Verse 2)


Chorus: 
D        D            D
You make beautiful things
      D         D          D          D     
You make beautiful things out of the dust

E|--x-x-x-x--|
B|--3-2-3-2--|
G|--2-2-2-2--|
D|--0-0-0-0--|
A|--0-0-0-0--|
D|--0-0-0-0--|

D        D            D
You make beautiful things
      D         D          D       D     D
You make beautiful things out of us 


Prelude:
E|--------------------------------|
B|--3---3---3---3--------(2)------|
G|--4---4---6---6-----------------|
D|----0---0---0-------2/4---------|
A|------------------0-------------|
D|--5-------------0---------------|


Verse 3:
G         D
All around
                  G                  D
Hope is springing up from this old ground
              G             A/G  D     G     D
Out of chaos life is being found in You


Chorus: 
D        D            D
You make beautiful things
      D         D          D          D     
You make beautiful things out of the dust

E|--x-x-x-x--|
B|--3-2-3-2--|
G|--2-2-2-2--|
D|--0-0-0-0--|
A|--0-0-0-0--|
D|--0-0-0-0--|

D        D            D
You make beautiful things
      D         D          D       D     D
You make beautiful things out of us


Prelude into Louder Chorus:
E|--x-x-x-x-x-x-x-x--|
B|--3-3-3-3-3-3-3-3--|
G|--2-2-2-2-3-3-3-3--|
D|--0-0-0-0-0-0-0-0--|
A|--0-0-0-0-0-0-0-0--|
D|--0-0-0-0-0-0-0-0--|


Louder Chorus:
G                      G/C#
You make beautiful things
                G                    G/C#     
You make beautiful things out of the dust
D
You make beautiful things

You make beautiful things out of us


Instrumental:
E|-------------------------------------------------------------x--|
B|-------------------------------------------------------------3--|
G|--7-7-7-11-11-11-7-7-6-6-6-11-11-11-6-6-4-4-4-6-6-6-11-11-11-2--|
D|-------------------------------------------------------------0--|
A|--5-5-5-9--9--9--5-5-4-4-4-9--9--9--4-4-2-2-2-4-4-4-9--9--9--0--|
D|-------------------------------------------------------------0--|


Bridge:
E|-----------------------------------------|
B|-----------------------------------------|
G|--7-----7-----7-----7-----7-----7-----7--|
D|------0-----0-----0-----0-----0-----0----|
A|----5-----5-----5-----5-----5-----5------|
D|--0--------------------------------------|

E|-----------------------------------------|
B|-----------------------------------------|
G|--6-----6-----6-----6-----6-----6-----6--|
D|------0-----0-----0-----0-----0-----0----|
A|----4-----4-----4-----4-----4-----4------|
D|--0--------------------------------------|

E|-----------------------------------------|
B|-----------------------------------------|
G|--4-----4-----4-----4-----4-----4-----4--|
D|------0-----0-----0-----0-----0-----0----|
A|----2-----2-----2-----2-----2-----2------|
D|--0--------------------------------------|

E|-----------------------------------------|
B|-----------------------------------------|
G|--2-----2-----2-----2-----2-----2-----2--|
D|------0-----0-----0-----0-----0-----0----|
A|----0-----0-----0-----0-----0-----0------|
D|--0--------------------------------------|


Chorus: 
D        D            D
You make beautiful things
      D         D          D          D     
You make beautiful things out of the dust

E|--x-x-x-x--|
B|--3-2-3-2--|
G|--2-2-2-2--|
D|--0-0-0-0--|
A|--0-0-0-0--|
D|--0-0-0-0--|

D        D            D
You make beautiful things
      D         D          D       D     D
You make beautiful things out of us


Prelude into Louder Chorus:
E|--x-x-x-x-x-x-x-x--|
B|--3-3-3-3-3-3-3-3--|
G|--2-2-2-2-3-3-3-3--|
D|--0-0-0-0-0-0-0-0--|
A|--0-0-0-0-0-0-0-0--|
D|--0-0-0-0-0-0-0-0--|


Louder Chorus:
G                      G/C#
You make beautiful things
                G                    G/C#     
You make beautiful things out of the dust
D
You make beautiful things
G               G/C#              D
You make beautiful things out of us
            
Tabs too difficult? Try these video lessons and learn fast.


comments powered by Disqus
↑ Back to top | Tablatures and chords are parodies/interpretations of the original songs. You may use it for private study, scholarship, research or language learning purposes only