» » »

Lovely Cup Bass tabs (ver.1)

Artists:  A B C D E F G H I J K L M N O P Q R S T U V W X Y Z # 

Lovely Cup Bass tabs (ver.1)

Grouplove
Rating:
0/5 (0 votes)

Hard to play? Try these video lessons and learn fast.
                (Intro)
g|-7--77-77-------------7--77-77-----------|
d|------------9-7-9-7--------------9-7-9-7-|
a|-----------------------------------------|
e|-----------------------------------------|

g|-0--00-00---7---7-----0--00-00---7---7-----|
d|--------------9---9----------------9---9---|
a|-------------------------------------------|
e|-------------------------------------------| 

after the second line, repeat the first line again, etc...
            
Hard to play? Try these video lessons and learn fast. | Correct




comments powered by Disqus
↑ Back to top | Tablatures and chords are parodies/interpretations of the original songs. You may use it for private study, scholarship, research or language learning purposes only