>
 >
Undercover

Undercover Guitar Tabs

Grinspoon - Undercover chords, tabs, tablatures, lyrics

Guitar lessons | Add/correct | Request | Top 50 tabs Artists:  A B C D E F G H I J K L M N O P Q R S T U V W X Y Z 0-9

Undercover Guitar Tabs – Grinspoon

CD, Sheet music, Poster

Do you like Undercover? Share with your friends now
TabsTabs v2
Drop D Tuning (low to high:DADGBE)

Intro x2
|----------------------------------------------------------|
|----------------------------------------------------------|
|-----5---7-5--------5---7-5------4-2-4-5-5------5-5-5-4-5-|
|-5-5---5-----5----5---5------2-2-------------3-3----------|
|----------------3-----------------------------------------|
|----------------------------------------------------------|

|---------------------------------------------|
|---------------------------------------------|
|-----57-5-------3-3-3-2h0--5-55-xxx-5-55-xx-|  
|-5-5--5----5----------------5-55-xxx-5-55-xx-|
|-------------1-1------------3-33-xxx-3-33-xx-|
|---------------------------------------------|
(Guitar 2 plays chorus 2nd time for intro.)

Verse x4
|---------------------------------------|
|---------------------------------------|
|------3-3-3-3-3p0------3-3-3-3-3p0-3/5-|
|-5-55-------------3-33-----------------|
|-5-55-------------3-33-----------------|
|-5-55-------------3-33-----------------|


Pre-Chorus x2
|------------------------------------|
|------------------------------------|
|------------------------------------|
|-0-00-0-00-2-22-2-22-3-33-33-3-3-33-|
|-0-00-0-00-2-22-2-22-3-33-33-3-3-33-|
|-0-00-0-00-2-22-2-22-3-33-33-3-3-33-|


Chorus x2
|------------------------------------------------------------------------|
|------------------------------------------------------------------------|
|---------5-5-55-----------5-55-55-5---------------------5-55-xxx-5-555-|
|-55-55-5-5-5-55-2-22-22-2-5-55-55-5-5-55-55-5-1-11-11-1-5-55-xxx-5-55-5-|
|-55-55-5-3-3-33-2-22-22-2-3-33-33-3-5-55-55-5-1-11-11-1-3-33-xxx-3-33-3-|
|-55-55-5--------2-22-22-2-----------5-55-55-5-1-11-11-1-----------------|

Interlude
|-----------------------------------------------------------------|
|-----------------------------------------------------------------|
|-----------------------------------------------------------------|
|-------------------------------------55-5-5-55-5-5-55-5-5-55-5-5-|
|-55-5-5-55-5-5-55-5-5-55-5-5-55-5-5--33-3-3-33-3-3-33-3-3-33-3-3-|
|-55-5-5-55-5-5-55-5-5-55-5-5-55-5-5------------------------------|
  p.m . . . . . . . . . . . . . . . . . . . . . . . . . . . . . . 

|--------|
|--------|
|--------|
|-3-33-5-|
|-1-11-3-|
|--------|

|-----------------------------------------------------------------|
|-----------------------------------------------------------------|
|-----------------------------------------------------------------|
|-------------------------------------55-5-5-55-5-5-55-5-5-55-5-5-|
|-55-5-5-55-5-5-55-5-5-55-5-5-55-5-5--33-3-3-33-3-3-33-3-3-33-3-3-|
|-55-5-5-55-5-5-55-5-5-55-5-5-55-5-5------------------------------|

|------------------------------|
|------------------------------|
|------------------------------|
|-33-33-3-22-22-2-1-11-11-11-1-| x2
|-33-33-3-22-22-2-1-11-11-11-1-|
|-33-33-3-22-22-2-1-11-11-11-1-|

|---------------|
|---------------|
|---------------|
|-77-7-77-7-777-|
|-55-5-55-5-555-|
|---------------|

		

Introx2                        
Versex4                      
PreChorusx2               
Chorusx2                    
Versex4                      
PreChorusx2               
Chorusx2
Interlude
Versex4
PreChorusx2
Chorusx2





Comments


Popular Grinspoon tabs & chords
Balding Matters Bass Tabs
Damn Straight Bass Tabs
Sickfest Bass Tabs
Rising Tide Drum Tabs
American Party Bomb Tabs
Chemical Heart Tabs
Choke Tabs
Dogs Tabs
Just Ace 1 Tabs
Off Piste Tabs


Song lyrics



↑ Back to top | Tablatures and chords are parodies/interpretations of the original songs. You may use it for private study, scholarship, research or language learning purposes only
© 2014 AZChords.com Contact us | Privacy policy | DMCA | Add/correct tabs | Request tabs | Top 50 tabs