» » »

Grinspoon, Secrets Tabs (ver.1)

Artists:  A B C D E F G H I J K L M N O P Q R S T U V W X Y Z # 

Secrets Tabs (ver.1)

Grinspoon Tabs
 Rating:
4/5 (4 votes)
Secrets lessons Tabs too difficult? Try these video lessons and learn fast
                Tuning: Top string is tuned down to a B the rest are in standard [ B A D G B e ]
                                                              
 intro
E------------------------------|---------------------------|
B------------------------------|---------------------------|
G------------------------------|---------------------------|
D------------------------------|---------------------------|
A--0h2-2-2---0h2-2-2---0h2-2-2-|--5---5-5-5-2---2-2-2-7~---|
B--0---0-0---0---0-0---0---0-0-|--3---3-3-3-0---0-0-0------|


 verse                          chorus                                  
E------------------------------|---------------------------|
B------------------------------|---------------------------|
G------------------------------|---------------------------|
D------------------------------|---------------------------|
A--0h2-2-2---0h2-2-2---0h2-2-2-|--5---5-5-5-2---2-2-2-7~---|
B--0---0-0---0---0-0---0---0-0-|--3---3-3-3-0---0-0-0------|

E-----------------------------|---------------------------|
B-----------------------------|---------------------------|
G-----------------------------|---------------------------|
D-----------------------------|---------------------------|
A--5---5-5-5-2---2-2-2-7-5-7~-|--5---5-5-5-2---2-2-2-7~---|
B--3---3-3-3-0---0-0-0--------|--3---3-3-3-0---0-0-0------|

E----------------------|--------------------------------|
B----------------------|--------------------------------|
G----------------------|--------------------------------|
D----------------------|--------------------------------|
A--5-------------------|--------------------------------|
B--3----------0/-14\---|--0-0-0-0-5-3-0-0-5-3-0-2^-0-2^-|
                                                ^----^ bend these 2's up half a note

  interlude                            2x                                  
E|-----------------------------------||---------------------------------|
B|-----------------------------------||---------------------------------|
G|*---------------------------------*||---------------------------------|
D|*---------------------------------*||---------------------------------|
A|-------------------7-9-0-----------||---------------------------------|
B|---0-0-3-5-0-5-7-0-------3-5-0-3---||--0-0-3-5-0-5-7-0-5-7-0-3-5-0-3--|

 solo                                                                   
E---------------------|---------------------|-----------------------|
B---------------------|---------------------|-----------------------|
G--7~-------------7-6-|--7~-------------7-6-|--7/9\7~-----------7-6-|
D---------------------|---------------------|-----------------------|
A---------------------|---------------------|-----------------------|
B---------------------|---------------------|-----------------------|
                              last verse  
E----------------------------|--------------------------|
B----------------------------|---------------5*-7*-12*--|
G--7~------7\6-6/7-6\4/6\4\2-|--------------------------|
D----------------------------|--------------------------|
A----------------------------|--------------------------|
B----------------------------|-0------------------------|
                              * harmony   

no tab places have this song and its definitly one of their best so i thought i'd tab it. enjoy worms and leeches.
            
Submit corrections

comments powered by Disqus
↑ Back to top | Grinspoon Tabs for Secrets. Lyrics for acoustic guitar and electric guitar. Tablatures and chords are parodies/interpretations of the original songs. You may use it for private study, scholarship, research or language learning purposes only