» » »

Grinspoon, Ready Tabs (ver.1)

Artists:  A B C D E F G H I J K L M N O P Q R S T U V W X Y Z # 

Ready Tabs (ver.1)

Grinspoon Tabs
 Rating:
4/5 (4 votes)
Ready lessons Tabs too difficult? Try these video lessons and learn fast

WWW.AZCHORDS.COM | Grinspoon Tabs - Ready Tabs (ver. 1)


Drop D Tuning (low to high: D A D G B E)


Intro

Play Four Times

Guitar One (Dist.)
|--------------------------|
|--------------------------|
|--------------------------|
|-9-9-9---5-7---5-55-77-88-|
|-9-9-9\--5-5-0-5-55-77-88-|
|-9-9-9\--5---0-5-55-77-88-|

Guitar Two (Dist.)
|--------------------------|
|--------------------------|
|-11-11-11\----------------|
|-9--9--9-\----------------|
|--------------------------|
|--------------------------|

Verse

|------------------------------------------------|
|------------------------------------------------|
|------------------------------------------------|
|-------------5-55-7-777--------------9-99-7-777-|
|-9-9-9-9-9-9-5-55-7-777--9-9-9-9-9-9-9-99-7-777-|
|-9-9-9-9-9-9-5-55-7-777--9-9-9-9-9-9-9-99-7-777-|
  p.m........             p.m........

Guitar Two Fills:
|----------------------|
|----------------------|
|-/11-11-11-11-11-11-9-|
|----------------------|
|----------------------|
|----------------------|

|---------|
|---------|
|---------|
|-9-9-9-7-|
|---------|
|---------|


Chorus

|--------------------------------------|
|--------------------------------------|
|--------------------------------------|
|-9-9-9-99--5-5-5555--2-2-22-22-2-2222-|
|-9-9-9-99--5-5-5555--2-2-22-22-2-2222-|
|-9-9-9-99--5-5-5555--2-2-22-22-2-2222-|


Bridge

Guitar One:
(play four times)
|-----------------------------------|
|-----------------------------------|
|-----------------------------------|
|-9-9-9--7-77-6666-9-9-9--6-66-7777-|
|-9-9-9--7-77-6666-7-7-7--6-66-7777-|
|-9-9-9--7-77-6666--------6-66-7777-|

Guitar Two:
(third and fourth times only)
|-------------------------------------------------------------|
|-------------------------------------------------------------|
|-11-11-11--11-11--11-11-11-9-9-9-9-------------8-8-8-9-9-9-9-|
|-9--9--9---9--9---9--9--9--7-7-7-7-9-9-9--9-9--6-6-6-7-7-7-7-|
|-----------------------------------7-7-7--7-7----------------|
|-------------------------------------------------------------|
            
Submit corrections

↑ Back to top | Grinspoon Tabs for Ready. Lyrics for acoustic guitar and electric guitar. Tablatures and chords are parodies/interpretations of the original songs. You may use it for private study, scholarship, research or language learning purposes only