» » »

Pedestrian Tabs (ver.2)

Artists:  A B C D E F G H I J K L M N O P Q R S T U V W X Y Z # 

Pedestrian Tabs (ver.2)

Grinspoon
Rating:
0/5 (0 votes)

Hard to play? Try these video lessons and learn fast.
                PEDESTRIAN

As recorded by Grinspoon
Music by Philip Jamieson and Joey Hansen
Track Number: 7
Track Length: 2:15

Drop D Tuning (low to high: D A D G B E)

Intro

|---------------------------------|
|---------------------------------|
|---------------------------------|
|--0-2-3-0-2-3-0-2-3-0-2-3-8-8-8--|
|--0-2-3-0-2-3-0-2-3-0-2-3-8-8-8--|
|--0-2-3-0-2-3-0-2-3-0-2-3-8-8-8--|


Verses


|-------------------------------------|
|-------------------------------------|
|-------------------------------------|
|--5-5-5-5-5-3-3-3-5/6/5-5-5-5-3-3-3--|
|--5-5-5-5-5-3-3-3-5/6/5-5-5-5-3-3-3--|
|--5-5-5-5-5-3-3-3-5/6/5-5-5-5-3-3-3--|

Chorus

|-------------------------------------|
|-------------------------------------|
|-------------------------------------|
|--5-5-5-5-5-3-3-3-5/6/5-5-5-5-3-3-3--|
|--5-5-5-5-5-3-3-3-5/6/5-5-5-5-3-3-3--|
|--5-5-5-5-5-3-3-3-5/6/5-5-5-5-3-3-3--|


Interlude

|-----------------------------------|
|-----------------------------------|
|-----------------------------------|
|--0-2-3-0-2-3-0-2-3-0-2-3-0-0-0-0--|
|--0-2-3-0-2-3-0-2-3-0-2-3-0-0-0-0--|
|--0-2-3-0-2-3-0-2-3-0-2-3-0-0-0-0--|
p.m....
            
Hard to play? Try these video lessons and learn fast. | Correct




comments powered by Disqus
↑ Back to top | Tablatures and chords are parodies/interpretations of the original songs. You may use it for private study, scholarship, research or language learning purposes only