» » »

Boundary Bass tabs (ver.2)

Artists:  A B C D E F G H I J K L M N O P Q R S T U V W X Y Z # 

Boundary Bass tabs (ver.2)

Grinspoon
Rating:
0/5 (0 votes)

Hard to play? Try these video lessons and learn fast.
                BAND:	   GRINSPOON
ALBUM:	   Guide To Better Living
TUNING:    (D A D G)


INTRO
G|-------------------------------------------------------------------------|
D|-------------------------------------------------------------------------|
A|-------------------------------------------------------------------------|
D|-12-11-10-12-11-10-12-11-10-12-11-10-12-11-10-12-11-10-12-11-10-12-11-10-|

G|-------------------------------------------------------------------------|
D|-------------------------------------------------------------------------|
A|-------------------------------------------------------------------------|
D|-12-11-10-12-11-10-12-11-10-12-11-10-12-11-10-12-11-10-12\---------------|


VERSE
G|-------------------------------------------------------------------------|
D|-------------------------------------------------------------------------|
A|-------------------------------------------------------------------------|
D|-12-12-12/15-15-15/12-12-12/15-15-15--10-10-10/12\3-3-3-7-5--------------| X6


CHORUS
G|-------------------------------------------------------------------------|
D|-------------------------------------------------------------------------|
A|-------------------------------------------------------------------------|
D|-5~------3~----10-10-10-10-8-8-8-8---------------------------------------|

G|-------------------------------------------------------------------------|
D|-------------------------------------------------------------------------|
A|-------------------------------------------------------------------------|
D|-5~------3~----10-10-10-10-10-10-10-10-----------------------------------|


INTRO
VERSE X4
CHORUS
INTRO


BRIDGE
G|-------------------------------------------------------------------------|
D|-------------------------------------------------------------------------|
A|-------------------------------------------------------------------------|
D|-0~---3-3~--0-5-0-5-0-5~--3~---------------------------------------------|


VERSE X2
VERSE X4 (no guitar)
CHORUS
INTRO


*******
  KEY
*******
/     = Slide up
\     = Slide down
~     = Let ring
            
Hard to play? Try these video lessons and learn fast. | Correct




comments powered by Disqus
↑ Back to top | Tablatures and chords are parodies/interpretations of the original songs. You may use it for private study, scholarship, research or language learning purposes only