» » »

Grinspoon, Black Friday Tabs (ver.3)

Artists:  A B C D E F G H I J K L M N O P Q R S T U V W X Y Z # 

Black Friday Tabs (ver.3)

Grinspoon Tabs
 Rating:
4.5/5 (8 votes)
Black Friday lessons Tabs too difficult? Try these video lessons and learn fast
                Black Friday by Grinspoon


This is my first tab so it might not be 100% correct so just play around with it
|----------------------------------------------------------------------|
|----------------------------------------------------------------------|
|----------------------------------------------------------------------|
|----------------------------------------------------------------------|   repeat
|--------3-3-------------3---3-----------3---3------------3-0-3-3-5-5--|
|----0-0-3-3-0-0-0----3-0-3-0-0-0---3-0-3-0-0-0----3-0-3-3-5-5-0-------|

Next bit                                                                          last time
|---------------------------------------------------------|---------|
|---------------------------------------------------------|---------|
|--999999999999999-7—999999999999999-7--|-999999999999999-9letring--|
|---------------------------------------------------------|---------|
|---------------------------------------------------------|---------|
|---------------------------------------------------------|---------|

Verse
|-----------------------------------------------------------------|
|-----------------------------------------------------------------|
|-----------------------------------------------------------------|
|-----------------------------------------------------------------|
|--------------------------------------------------3---3-3-5-5----|
|--------------------------------------------------3-0-3-3-5-5-0--|
                    Money wise……………..

Chorus
|------------------------------------------------------------------------------------------|
|-------------888------------ 888---------------------888----------------------------------|
|------------------------------------------------------------------------------------------|
|------------------------------------------------------------------------------------------|
|---0-3-0-----------0-3-0----------------0-3-0--------------------------------0-3-3-5-5-0--|
|---0-3-0-----------0-3-0----------------0-3-0--------------------------------0-3-3-5-5-0--|
             Chemical          physical                 whatcha got?       Bring on that blackFriday


I might put the solo in later if I can work it out.
            
Submit corrections

comments powered by Disqus
↑ Back to top | Grinspoon Tabs for Black Friday. Lyrics for acoustic guitar and electric guitar. Tablatures and chords are parodies/interpretations of the original songs. You may use it for private study, scholarship, research or language learning purposes only