» » »

Grinspoon, Better Off Dead Tabs (ver.2)

Artists:  A B C D E F G H I J K L M N O P Q R S T U V W X Y Z # 

Better Off Dead Tabs (ver.2)

Grinspoon Tabs
 Rating:
4/5 (4 votes)
Better Off Dead lessons Tabs too difficult? Try these video lessons and learn fast
1
                                     Grinspoon – Better Off Dead

Riff
e|---------------------------------------------------------------------------|
B|---------------------------------------------------------------------------|
G|---------------------------------------------------------------------------|
D|---------------------------------------------------------------------------|
A|---------------------------------------------------------------------------|
D|-1p0--0-0-0-0-0-0--1p0--0-0-0-0-0-0--1p0--0-0-0-0-0-0--3-3-3--5-5-5--------|

e|---------------------------------------------------------------------------|
B|---------------------------------------------------------------------------|
G|---------------------------------------------------------------------------|
D|---------------------------------------------------------------------------|
A|---------------------------------------------------------------------------|
D|-1p0--0-0-0-0-0-0--1p0--0-0-0-0-0-0--1p0--0-0-0-0-0-0--3-3-3--1-1-1--------|

e|---------------------------------------------------------------------------|
B|---------------------------------------------------------------------------|
G|---------------------------------------------------------------------------|
D|---------------------------------------------------------------------------|
A|---------------------------------------------------------------------------|
D|-0h1--1-1-1-1-1-1--0h1--1-1-1-1-1-1--0h1--1-1-1-1-1-1--3-3-3---5-5-5-------|

e|---------------------------------------------------------------------------|
B|---------------------------------------------------------------------------|
G|---------------------------------------------------------------------------|
D|---------------------------------------------------------------------------|
A|---------------------------------------------------------------------------|
D|-1p0--0-0-0-0-0-0--1p0--0-0-0-0-0-0--1p0--0-0-0-0-0-0--3-3-3--1-1-1--------|

Chorus
e|---------------------------------------------------------------------------|
B|---------------------------------------------------------------------------|
G|---------------------------------------------------------------------------|
D|-0---0---0---3-3--5-5------------------------------------------------------|
A|-0---0---0---3-3--5-5------------------------------------------------------|
D|-0---0---0---3-3--5-5------------------------------------------------------|

Riff

Chorus

Bridge (wah)
e|---------------------------------------------------------------------------|
B|---------------------------------------------------------------------------|
G|-7----7----7---------------------------------------------------------------|
D|---------------3-3--5-5----------------------------------------------------|
A|-5----5----5---3-3--5-5----------------------------------------------------|
D|---------------3-3--5-5----------------------------------------------------|

Interlude
e|---------------------------------------------------------------------------|
B|---------------------------------------------------------------------------|
G|-10/12-12-12----12\10-10-10---10/12-12-12---12\10-10-10---7/10-10-10-------|
D|---------------------------------------------------------------------------|
A|--8/10-10-10----10\-8--8--8----8/10-10-10---10\-8--8--8---5/-8--8--8-------|
D|---------------------------------------------------------------------------|

e|-----------------------------------|-13------13----------------------------|
B|-----------------------------------|----10~-----10~------------------------|
G|-10/12-12-12---12\10-10---7/10-10--|----------------10/12-12-12---12\10-10-|
D|-----------------------------------|---------------------------------------|
A|--8/10-10-10---10\-8--8---5/-8--8--|-----------------8/10-10-10---10\-8--8-|
D|-----------------------------------|---------------------------------------|
									    ( times 2 )

Riff 

Chorus
            
Submit corrections

comments powered by Disqus
↑ Back to top | Grinspoon Tabs for Better Off Dead. Lyrics for acoustic guitar and electric guitar. 1 Tablatures and chords are parodies/interpretations of the original songs. You may use it for private study, scholarship, research or language learning purposes only