» » »

Grinspoon, Balding Matters Tabs (ver.3)

Artists:  A B C D E F G H I J K L M N O P Q R S T U V W X Y Z # 

Balding Matters Tabs (ver.3)

Grinspoon Tabs
 Rating:
4/5 (4 votes)
Balding Matters lessons Tabs too difficult? Try these video lessons and learn fast
                BALDING MATTERS
As recorded by Grinspoon
Words and Music by Philip Jamieson and Joey Hansen
Track Number: 13
Track Length: 2:34

Drop D Tuning (low to high: D A D G B E)

Intro

|---------------------------|
|---------------------------|
|---------------------------|
|--0-3-5-0-3-5-x-0-3-5-0-3--|
|--0-3-5-0-3-5-x-0-3-5-0-3--|
|--0-3-5-0-3-5-x-0-3-5-0-3--|

|-------------------------------------------|
|-------------------------------------------|
|-------------------------------------------|
|--x-0-3-5-0-3-5-5--------------------------|
|--x-0-3-5-0-3-5-5/10-10-10-10-10-10-10-10--|


Chorus

|--------------------------------------------|
|--------------------------------------------|
|--------------------------------------------|
|-12-12-12-10-10-10-10-12-12-12-10-10-10-10--| |-12-12-12-10-10-10-10-12-12-12-10-10-10-10--| |-12-12-12-10-10-10-10-12-12-12-10-10-10-10--|
|-----------------------------------|
|-----------------------------------|
|-----------------------------------|
|--12-12-12-10-10-10-3-3-3-3-3-3-3--|
|--12-12-12-10-10-10-3-3-3-3-3-3-3--|
|--12-12-12-10-10-10-3-3-3-3-3-3-3--|


Interlude

|------------------------------------------|
|------------------------------------------|
|------------------------------------------|
|-0~------1------0-------3-1-1-3-3-1-0-1-3-|
|-0~------1------0-------3-1-1-3-3-1-0-1-3-|
|-0~------1------0-------3-1-1-3-3-1-0-1-3-|


Outro

|---------------------------------------|
|---------------------------------------|
|---------------------------------------|
|-3-3-3-3-3-3-3-3-3-3-3-3-3-3-3-3-3-5-0-|
|-3-3-3-3-3-3-3-3-3-3-3-3-3-3-3-3-3-5-0-|
|-3-3-3-3-3-3-3-3-3-3-3-3-3-3-3-3-3-5-0-|
            
Submit corrections

comments powered by Disqus
↑ Back to top | Grinspoon Tabs for Balding Matters. Lyrics for acoustic guitar and electric guitar. Tablatures and chords are parodies/interpretations of the original songs. You may use it for private study, scholarship, research or language learning purposes only