» » »

American Party Bomb Tabs (ver.2)

Artists:  A B C D E F G H I J K L M N O P Q R S T U V W X Y Z # 

American Party Bomb Tabs (ver.2)

Grinspoon
Rating:
0/5 (0 votes)

Hard to play? Try these video lessons and learn fast.
                                     Grinspoon – American Party Bomb

Intro x 4 (wah)
e|---------------------------------------------------------------------------|
B|---------------------------------------------------------------------------|
G|---------------------------------------------------------------------------|
D|---------------------------------------------------------------------------|
A|---------------------------------------------------------------------------|
D|-5-5-5-5-6-6-6-6-0-0-0-3-3-3-3--5-5-5-5-6-6-6-0-0-0-3-3-3-3----------------|

Post Intro
e|--------|
B|--------|
G|--------|
D|-0-3----|
A|-0-3----|
D|-0-3----|

Riff x 4
e|---------------------------------------------------------------------------|
B|---------------------------------------------------------------------------|
G|---------------------------------------------------------------------------|
D|-5-5-5-5-6-6-6-6-0-0-0-3-3-3-3---------------------------------------------|
A|-5-5-5-5-6-6-6-6-0-0-0-3-3-3-3---------------------------------------------|
D|-5-5-5-5-6-6-6-6-0-0-0-3-3-3-3---------------------------------------------|

Verse
e|---------------------------------------------------------------------------|
B|---------------------------------------------------------------------------|
G|---------------------------------------------------------------------------|
D|----------------------------------------------------------12/---3-2-1------|
A|----------------------------------------------------------12/---3-2-1------|
D|----------------------------------------------------------12/---3-2-1------|

Riff x 2

Chorus
e|---------------------------------------------------------------------------|
B|---------------------------------------------------------------------------|
G|---------------------------------------------------------------------------|
D|-0-0-0-0--0-0-0-0--3-3-3-3--5-5-5-5--5-5-5-5--5-5-5-5--5-5-5-5--6-6-6-5-0-3|
A|-0-0-0-0--0-0-0-0--3-3-3-3--5-5-5-5--5-5-5-5--5-5-5-5--5-5-5-5--6-6-6-5-0-3|
D|-0-0-0-0--0-0-0-0--3-3-3-3--5-5-5-5--5-5-5-5--5-5-5-5--5-5-5-5--6-6-6-5-0-3|

e|---------------------------------------------------------------------------|
B|---------------------------------------------------------------------------|
G|---------------------------------------------------------------------------|
D|-5-5-5-5--5-5-5-5--5-5-5-5--6----------------------------------------------|
A|-5-5-5-5--5-5-5-5--5-5-5-5--6----------------------------------------------|
D|-5-5-5-5--5-5-5-5--5-5-5-5--6----------------------------------------------|

Solo
e|---------------------------------------------------------------------------|
B|-14b-14-14b-14b-14-13b—14b-14-14b-14b-14-13b-------------------------------|
G|---------------------------------------------------------------------------|
D|-----------------------------------------------6---5---3-0-----------------|
A|-----------------------------------------------6---5---3-0-----------------|
D|-----------------------------------------------6---5---3-0-----------------|

Riff x 2

Verse x 1

Riff x 4
            
Hard to play? Try these video lessons and learn fast. | Correct




comments powered by Disqus
↑ Back to top | Tablatures and chords are parodies/interpretations of the original songs. You may use it for private study, scholarship, research or language learning purposes only