» » »

Grinspoon, 1000 Miles Tabs (ver.3)

Artists:  A B C D E F G H I J K L M N O P Q R S T U V W X Y Z # 

1000 Miles Tabs (ver.3)

Grinspoon Tabs
 Rating:
3.5/5 (8 votes)
1000 Miles lessons Tabs too difficult? Try these video lessons and learn fast
1
                p=pull off

You'll probly have to listen to the song to get it

Intro 1x7
e---0--3p0-3p0-00-5p0-0-6p0-0-3----------------------------------------
b----------------------------------------------------------------------
g----------------------------------------------------------------------
d----------------------------------------------------------------------
a----------------------------------------------------------------------
e----------------------------------------------------------------------
Intro 2 x4
e----------------------------------------------------------------------
b----------------------------------------------------------------------
g----------------------------------------------------------------------
d----------------------------------------------------------------------
a--------------2p0-0-3p0-0---------------------------------------------
e-0-3p0-3p0-00-------------3-------------------------------------------


Verse
e----------------------------------------------------------------------
b----------------------------------------------------------------------
g----------------------------------------------------------------------
d-2--------------------------------2-----------------------------------
a-2-----------------2p0-0-3p0-0----2-------------------2p0-0-3p0-0-----
e-0----0-3p0-3p0-00-------------3--0------0-3p0-3p0-00-------------3---
  ^                                 ^
well i got drunk then i got stoned   shot my family left my home

e----------------------------------------------------------------------
b----------------------------------------------------------------------
g----------------------------------------------------------------------
d-2--------------------------------2-----------------------------------
a-2-----------------2p0-0-3p0-0----2-------------------2p0-0-3p0-0-----
e-0----0-3p0-3p0-00-------------3--0------0-3p0-3p0-00-------------3---
  ^                                ^
went out on a killing spree        cause wat u did was f*cked to me

Chorus
e----------------------------------------------------------------------
b----------------------------------------------------------------------
g----------------------------------------------------------------------
d-5-4-3--------------------------------4-5-----------------------------
a-3-2-1----------------2p0-0-3p0-0---7-2-3--------------2p0-0-3p0-0----
e--------0-3p0-3p0-00--------------3-5-------0-3p0-3p0-00--------------
  ^                                  ^
A Thou-sand-Miles                    Go Get all your Files

e----------------------------------------------------------------------
b----------------------------------------------------------------------
g----------------------------------------------------------------------
d-5--4-3--------------------------------4-5----------------------------
a-3--2-1---------------2p0-0-3p0-0---7--2-3----------------------------
e---------0-3p0-3p0-00-------------3-5---------------------------------
  ^                                    ^
Put on That Plastic Smile               A Thousand Miles

 "go go go"





Verse 2
Well i got down and said to me
She made me part of history
well i got drunk then i got stoned
left my family all alone Go Go Gooo

Chorus
A thousand miles
come get all your files 
put on that plastic smile
a thousand miles

Intro "go go go" x4

Interlude

Chorus 2
A thou-sand-miles
come get all your files
add up them frequent flyers
put on that plastic smile
a thou-sand-miles
go get all your files
put on that plastic smile
a thousand miles

Intro+3 "go go go"

  
            
Submit corrections

comments powered by Disqus
↑ Back to top | Grinspoon Tabs for 1000 Miles. Lyrics for acoustic guitar and electric guitar. 1 Tablatures and chords are parodies/interpretations of the original songs. You may use it for private study, scholarship, research or language learning purposes only