>
 >
Party @ 8:02

Party @ 8:02 Guitar Tabs

Greyhoundz - Party @ 8:02 chords, tabs, tablatures, lyrics

Guitar lessons | Add/correct | Request | Top 50 tabs Artists:  A B C D E F G H I J K L M N O P Q R S T U V W X Y Z 0-9

Party @ 8:02 Guitar Tabs – Greyhoundz

CD, Sheet music, Poster

Do you like Party @ 8:02? Share with your friends now
Tabs
                 "PARTY @ 802"BY:GREYHOUNDZ

dropped D
intro:(bass riffs) 
D|-----------------------------|
A|-----------------------------|
F|-----------------------------|
C|-----------------------------|
G|-----------1-----------------|
D|---0-3--1-----1--------------|

      (guitar riffs)
D|---7/4------3-----9----------|
A|---9/6------3--------9-------|
F|-----------------------------|
C|-----------------------------|
G|-----------------------------|
D|-----------------------------|

         X2
D|---9---9---9---9-10--  ---9---9---9---9-9--9--------|
A|---9---9---9---9-8---  ---9---9---9---9-9-----9-----|
F|-X---X---X---X-------  -X---X---X---X------------9--|
C|---------------------  -----------------------------|
G|---------------------  -----------------------------|
D|---------------------  -----------------------------|

  There’s a party at 802…     X6
D|------------------------------------------------------------|
A|-15h17-15---15h17-15---15h17-15---15h17-15—16h17------------|
F|--------------------------------------------------17-16-15--|
C|------------------------------------------------------------|
G|------------------------------------------------------------|
D|------------------------------------------------------------|

 Gonna make me put into my sky…  (repeat)
D|--15----------------------  -15----------------------|
A|----------13/15-----------  --------13h15------------|
F|------12---------13h15-12-  -----12--------15/13-----|
C|--------------------------  -------------------------|
G|--------------------------  -------------------------|
D|--------------------------  -------------------------|
                 
            (Do it fast)
D|----15--13---------------------------|
A|-----------15-14---------------------|
F|-----------------15-14-13------------|
C|-------------------------------------|
G|-------------------------------------|
D|-------------------------------------|
                                                Full vol.
D|--9----10—10/12--  -9-----7-8--  -9----10—10/12--|
A|-----9-----------  ----9-------  ----9-----------|
F|-----------------  ------------  ----------------|
C|-----------------  ------------  ----------------|
G|-----------------  ------------  ----------------|
D|-----------------  ------------  ----------------|

 What come commin’ when the party now begin…  X4
D|----------------------------|
A|----------------------------|
F|--7-------7-8-------7-------|
C|--7-0-0-0-7-8-0-0-0-7-------|
G|--5-0-0-0-5-6-0-0-0-5-------|
D|----------------------------|

 Smoke, smoke, smoke, smoken…  X4
D|---------------------------|
A|---------------------------|
F|-------3-------------------|
C|--2----3-------------------|
G|--2----1-------------------|
D|--0--0---------------------|

Gonna make me put into my sky…  (repeat)
D|----------------------------|
A|----------------------------|
F|--7-------7-8-------7-------|
C|--7-0-0-0-7-8-0-0-0-7-------|
G|--5-0-0-0-5-6-0-0-0-5-------|
D|----------------------------|

      (bass riffs) 
D|-----------------------------|
A|-----------------------------|
F|-----------------------------|
C|-----------------------------|
G|-----------1-----------------|
D|---0-3--1-----1--------------|

      (guitar riffs)
D|---7/4------3-----9----------|
A|---9/6------3--------9-------|
F|-----------------------------|
C|-----------------------------|
G|-----------------------------|
D|-----------------------------|

Gonna make me put into my sky…  X2
D|--15----------------------  -15----------------------|
A|----------13/15-----------  --------13h15------------|
F|------12---------13h15-12-  -----12--------15/13-----|
C|--------------------------  -------------------------|
G|--------------------------  -------------------------|
D|--------------------------  -------------------------|

   Teach me fly, take me high…
D|----------  -------------------------|
A|----------  -------9—9/12-11-12------|
F|----9--11-  --9-11-------------------|  X2
C|-11-------  -------------------------|
G|----------  -------------------------|
D|----------  -------------------------|

          X3
D|-----------------------  ----------------------------|
A|-----------9/12-11-12--  --12-11--9—7/9—9/10--9--7---|
F|-----9-11--------------  ----------------------------|
C|--11-------------------  ----------------------------|
G|-----------------------  ----------------------------|
D|-----------------------  ----------------------------|

   Outro:
D|--------------------  ---------------4-----|
A|--11h9--------6/8---  --9h7h6—4h6-5--------|
F|--------11--9-------  ---------------------|
C|--------------------  ---------------------|
G|--------------------  ---------------------|
D|--------------------  ---------------------|

D|---3h2—3h2--1-0------------|
A|---------------------------|
F|------------------2b-------|
C|---------------------------|
G|---------------------------|
D|---------------------------|
     <<<>>>





Comments


Popular Greyhoundz tabs & chords
Hole Live Bass Tabs
Karmic Bass Tabs
Your Puppet And Clown Bass Tabs
Apoy 2 Tabs
Doble Kara Intro 1 Tabs
Hinahanap Tabs
Leech 1 Tabs
Monologue Tabs
Ode Tabs
Y Tabs


Song lyrics



↑ Back to top | Tablatures and chords are parodies/interpretations of the original songs. You may use it for private study, scholarship, research or language learning purposes only
© 2014 AZChords.com Contact us | Privacy policy | DMCA | Add/correct tabs | Request tabs | Top 50 tabs