» » »

Greyhoundz, Leech Bass tabs (ver.1)

Artists:  A B C D E F G H I J K L M N O P Q R S T U V W X Y Z # 

Leech Bass tabs (ver.1)

Greyhoundz Tabs
 Rating:
4/5 (4 votes)
Leech lessons Tabs too difficult? Try these video lessons and learn fast
1
                LEECH BASS TAB:

Tunning: dadg


BASS

Verse:

G----------------------15-------|
D-------------------------------|4x
A-------------------------------|
D---------91210121012-----------|

                        P

G--------------------13--15-----|
D-------------------------------|4x
A-------------------------------|
D---------912101210-------------|

                     P   P

G----444-----444-----444----444--|4x
D--------------------------------|
A--2------2-------2-------2------|NOTE: timing lang
D--------------------------------|

   T PPP  T  PPP  T  PPP  T  PPP

Chorus:

G---------1315--------------------------------|
D---------------------------------------------|
A-7777777-------5555555----777777---55555-----|
D---------------------------------------------|

                      P P

Verse:

G----------------------15-------|
D-------------------------------|4x
A-------------------------------|
D-/--------91210121012----------|

                                                P

G--------------------13--15----|
D------------------------------| 4x
A------------------------------|
D---------912101210------------|

  
                   P   P
Chorus:
G---------1315-------------------------------|
D--------------------------------------------|
A-7777777-------5555555----777777---55555----|
D--------------------------------------------|

                      P P
                                  
Bridge:
G--------------------------|
D--------------------------|
A--------------------------|
D|--9-10-9-12-9-10-9-12----|


Repeat chorus
Repeat Bridge 4x
Repeat verse riff 

elow to all my friends..s mga zephra boys..
            
Submit corrections

comments powered by Disqus
↑ Back to top | Greyhoundz Bass for Leech. Lyrics for acoustic guitar and electric guitar. 1 Tablatures and chords are parodies/interpretations of the original songs. You may use it for private study, scholarship, research or language learning purposes only