» » »

Greyhoundz, Leech Tabs (ver.2)

Artists:  A B C D E F G H I J K L M N O P Q R S T U V W X Y Z # 

Leech Tabs (ver.2)

Greyhoundz Tabs
 Rating:
4.2/5 (5 votes)
Leech lessons Tabs too difficult? Try these video lessons and learn fast
1
                Tuning: Tune guitar 1 1/2 step down then drop d (B F# B E G# C#).

LEGEND:

/ or \ - slide up or down
p - pull off
h - hammer on
p.m. --- - palm mute

Intro:

gtr.1 gtr.2
C#--------------------   --23----23~~~~ 
G#--------------------   --------------
E --------------------4x --------------
B --------------------   --------------
F#--------------------   --------------
B --0-3-0-2-0-3-0-2-0-   --------------

Verse:
gtr.1 
C#-------------------- 
G#-------------------- 
E --------------------4x 
B --0-3-0-2-0-3-0-2-0- 
F#--0-3-0-2-0-3-0-2-0- 
B --0-3-0-2-0-3-0-2-0- 

gtr.1 gtr.2
C#--------------------   --23---- 
G#--------------------   --------
E --------------------4x --------4x
B --0-3-0-2-0-3-0-2-0-   --------
F#--0-3-0-2-0-3-0-2-0-   --------
B --0-3-0-2-0-3-0-2-0-   --------

Interlude:

C#------------|----------------------|-------------
G#------------|----------------------|-------------
E ------------|3x--------------------|2x-----------
B ------------|----------------------|-------------
F#------------|----------------------|-------------
B --0-000000--|---8-000000-1-000000--|---8-000000--

repeat verse

Chorus:

C#------------------------
G#------------------------
E ------------------------2x
B --5--5--5-4-3--3--3-4---
F#--5--5--5-4-3--3--3-4---
B --5--5--5-4-3--3--3-4---

repeat verse & chorus

Bridge:

C#----------------------
G#----------------------
E ----------------------8x
B --0-1-0-2-0-1-0-2-0-0-
F#--0-1-0-2-0-1-0-2-0-0-
B --0-1-0-2-0-1-0-2-0-0-

repeat chorus & bridge 

C#---------------
G#---------------
E ---------------
B ---------------
F#---------------
B --5--5--5/6--6-

repeat verse

_end_
            
Submit corrections

comments powered by Disqus
↑ Back to top | Greyhoundz Tabs for Leech. Lyrics for acoustic guitar and electric guitar. 1 Tablatures and chords are parodies/interpretations of the original songs. You may use it for private study, scholarship, research or language learning purposes only