>
 >
Koro

Koro Guitar Tabs

Greyhoundz - Koro chords, tabs, tablatures, lyrics

Guitar lessons | Add/correct | Request | Top 50 tabs Artists:  A B C D E F G H I J K L M N O P Q R S T U V W X Y Z 0-9

Koro Guitar Tabs – Greyhoundz

CD, Sheet music, Poster

Do you like Koro? Share with your friends now
Bass TabsTabs
KoRO

all bends are half bends

Verse1-gloc9 rap
(guitar 1)

^-pitch up

           ^        ^        ^        ^-hold

D------------------------------------------------------------|
A------------------------------------------------------------|
F---6---------9--------8-------------10^r-9^r----------------|
C------------------------------------------------------------|
G------------------------------------------------------------|
C------------------------------------------------------------|

8x yata


D-----------------------------------------------------------------|
A-----------------------------------------------------------------|
F---6---------9--------8------------------------------------------|
C------------------------------------------------------ung pang 8-|
G-----------------------------------------------------------------|
C-----------------------------------------------------------------|

Guitar 2

pinaglalaruan lng ang wahwah
actually this riff is in all the verses

D---0---0--0--0-----------------------------------------------------|
A---0---0--0--0-----------------10^r---9^r--------------------------|
F---0---0--0--0-----------------------------------------------------|
C-------------------------------------------------------------------|
G-------------------------------------------------------------------|
C-------------------------------------------------------------------|

Chorus
pakinggan nyo para makuha nyo strum nya ---my pinch harmonics dito eh---ung mga p-sa taas

                      p   p   p
D---------------------------------------------------------------------------|
A---------------------------------------------------------------------------|
F---------------------------------------------------------------------------|
C---0-0-0-0-0-0-------------------5-----4-----------------------------------|
G---0-0-0-0-0-0-------5p4-4p3-3p2---2h4-------------------------------------|
C---0-0-0-0-0-0-------------------------------------------------------------|

4x toh
after the 4th chorus do this riff

D--------------------------------------------------------|
A--------------------------------------------------------|
F--------------------------------------------------------|
C-------------5------4-----------------------------------|
G--------3-2----2-4----2-4-------------------------------|
C----------------------------------------    this is-----| 4x

Guitar 2 - simoultaneous with this ^

D--------------------------------------------------------|
A--------------------------------------------------------|
F--------------------------------------------------------| Palm mute
C-------------5------4-4---------------------------------|
G--------3-2----2-4--------------------------------------|
C----------------------------------------    this is-----| 4x
Verse 2 -reg rap
(guitar 1)

            ^        ^        ^        ^-hold

D------------------------------------------------------------|
A------------------------------------------------------------|
F---6---------9--------8-------------10^r-9^r----------------|
C------------------------------------------------------------|
G------------------------------------------------------------|
C------------------------------------------------------------|

8x yata


D-----------------------------------------------------------------|
A-----------------------------------------------------------------|
F---6---------9--------8------------------------------------------|
C------------------------------------------------------ung pang 8-|
G-----------------------------------------------------------------|
C-----------------------------------------------------------------|

chorus 2
p-pinch
                      p   p   p
D---------------------------------------------------------------------------|
A---------------------------------------------------------------------------|
F---------------------------------------------------------------------------|
C---0-0-0-0-0-0-------------------5-----4-----------------------------------|
G---0-0-0-0-0-0-------5p4-4p3-3p2---2h4-------------------------------------|
C---0-0-0-0-0-0-------------------------------------------------------------|

4x toh
after the 4th chorus do this riff

D--------------------------------------------------------|
A--------------------------------------------------------|
F--------------------------------------------------------|
C-------------5------4-----------------------------------|
G--------3-2----2-4----2-4-------------------------------|
C----------------------------------------    this is-----| 4x

Guitar 2 - simoultaneous with this ^

D--------------------------------------------------------|
A--------------------------------------------------------|
F--------------------------------------------------------| Palm mute
C-------------5------4-4---------------------------------|
G--------3-2----2-4--------------------------------------|
C----------------------------------------    this is-----| 4x


verse 3

francis M. rap
these riffs are consecutive

D--------------------------------------------------------------------|
A--------------------------------------------------------------------|
F--------------------------------------------------------------------|
C---0-0---3-----6-6-5-6-6-5-6-6-5------------------------------------|
G---0-0---3-----6-6-5-6-6-5-6-6-5------------------------------------|
C---0-0---3-----6-6-5-6-6-5-6-6-5------------------------------------|


D-----------------------------------------------------------------------|
A-----------------------------------------------------------------------|
F-----------------------------------------------------------------------|
c--9-8-7-6------6-6-5-6-6-5-6-6-5---------------------------------------|
g--9-8-7-6------6-6-5-6-6-5-6-6-5---------------------------------------|
C--9-8-7-6------6-6-5-6-6-5-6-6-5---------------------------------------|


^6x^

chorus 3
p-pinch
                      p   p   p
D---------------------------------------------------------------------------|
A---------------------------------------------------------------------------|
F---------------------------------------------------------------------------|
C---0-0-0-0-0-0-------------------5-----4-----------------------------------|
G---0-0-0-0-0-0-------5p4-4p3-3p2---2h4-------------------------------------|
C---0-0-0-0-0-0-------------------------------------------------------------|

4x toh
after the 4th chorus do this riff

D--------------------------------------------------------|
A--------------------------------------------------------|
F--------------------------------------------------------|
C-------------5------4-----------------------------------|
G--------3-2----2-4----2-4-------------------------------|
C----------------------------------------    this is-----| 4x

Guitar 2 - simoultaneous with this ^

D--------------------------------------------------------|
A--------------------------------------------------------|
F--------------------------------------------------------| Palm mute
C-------------5------4-4---------------------------------|
G--------3-2----2-4--------------------------------------|
C----------------------------------------    this is-----| 4x

Verse 4 -all of the rappers
(guitar 1)
tremolo divebomb first


            ^        ^        ^        ^-hold

D------------------------------------------------------------|
A------------------------------------------------------------|
F---6---------9--------8-------------10^r-9^r----------------|
C------------------------------------------------------------|
G------------------------------------------------------------|
C------------------------------------------------------------|

8x yata


D-----------------------------------------------------------------|
A-----------------------------------------------------------------|
F---6---------9--------8------------------------------------------|
C------------------------------------------------------ung pang 8-|
G-----------------------------------------------------------------|
C-----------------------------------------------------------------|


chorus 4
p-pinch
                      p   p   p
D---------------------------------------------------------------------------|
A---------------------------------------------------------------------------|
F---------------------------------------------------------------------------|
C---0-0-0-0-0-0-------------------5-----4-----------------------------------|
G---0-0-0-0-0-0-------5p4-4p3-3p2---2h4-------------------------------------|
C---0-0-0-0-0-0-------------------------------------------------------------|

ends with a fade out


rakrakan to chong astig na kanta
sana hnd k
Salpicado rocks





Comments


Popular Greyhoundz tabs & chords
Your Puppet And Clown Bass Tabs
Battle Cry Tabs
Doble Kara Tabs
Doble Kara 1 Tabs
Doble Kara 2 Tabs
Hinahanap Tabs
Karmic Tabs
Leech 1 Tabs
Party 802 Intro Tabs
Your Puppet And Clown 1 Tabs


Song lyrics



↑ Back to top | Tablatures and chords are parodies/interpretations of the original songs. You may use it for private study, scholarship, research or language learning purposes only
© 2014 AZChords.com Contact us | Privacy policy | DMCA | Add/correct tabs | Request tabs | Top 50 tabs