» » »

Greyhoundz, Koro Bass tabs (ver.1)

Artists:  A B C D E F G H I J K L M N O P Q R S T U V W X Y Z # 

Koro Bass tabs (ver.1)

Greyhoundz Tabs
 Rating:
4/5 (4 votes)
Koro lessons Tabs too difficult? Try these video lessons and learn fast
                Tuning: BF#BE

   p - pull off
   h - hammer
   \ - slide down
   / - slide up

Verse 1:
 E||-------------------------------------------------------------------|
 B||------------8x--------888------------------------------------------|
F#||---5555778-----x7~~----------000-----------------------------------|
 B||-------------------------------------0-----------------------------|
                                                    played 3x then...

 E||----------------------------------------|
 B||------------8x--------------------------|
F#||---5555778-----x7~~----------000--------|
 B||-------------------------------------0--|

      then..
 E||-------------------------------------------------------------------|
 B||------------8x--------888--7--7h8p7--------------------------------|
F#||---5555778-----x7~~------------------------------------------------|
 B||-------------------------------------------------------------------|

 E||-------------------------------------------------------------------|
 B||------------8x--------888------------------------------------------|
F#||---5555778-----x7~~---------88------0--0---------------------------|
 B||-------------------------------------------------------------------|

 E||-------------------------------------------------------------------|
 B||------------8x--------888--7--7h8p7--------------------------------|
F#||---5555778-----x7~~------------------------------------------------|
 B||-------------------------------------------------------------------|

 E||-------------------------------------------------------------------|
 B||------------8x-----------------------------------------------------|
F#||---5555778-----x7~~------------------------------------------------|
 B||-------------------------888---0-3-2-0-3~~-------------------------|

chorus: (played slower)

 E||-------------------------------------------------------------------|
 B||-------------------------------------------------------------------|
F#||-------------------------------------------------------------------|
 B||--0-1-1-1-1-1-1-1-1-1-1-1-1-1-1-1--00--00--00--00--0000------------|
                                                            played 4x

 E||-------------------------------------------------------------------|
 B||------6-----5---------6-----5---------6-----5---------6-----5------|
F#||--3-4---3-4---3-1-3-4---3-4---3-1-3-4---3-4---3-1-3-4---3-4--------|
 B||-------------------------------------------------------------------|

 (repeat verse. it's basically the same)
 (chorus)

bridge:

 E||-------------------------------------------------------------------|
 B||-------------------------------------------------------------------|
F#||-------------------------------------------------------------------|
 B||-0-0-3--0-3-5-6--5--6--5--66---10--9--8--7--7---6-6---6-6---6~-\---|

 E||-------------------------------------------------------------------|
 B||-------------------------------------------------------------------|
F#||-------------------------------------------------------------------|
 B||-0-0-3--0-3-5-6--5--6--5--66---10--9--8--7--7---6-6---6-6---6~-\---|

 E||-------------------------------------------------------------------|
 B||-------------------------------------------------------------------|
F#||-------------------------------------------------------------------|
 B||-0-0-3--0-3-5-6--5--6--5--66---10--9--8--7--7---6-6---6-6---6~-/---|

 E||-------------------------------------------------------------------|
 B||-0-0-3--0-3-5-6--5--6--5--66---10--9--8--7--7---6-6---66-----------|
F#||-------------------------------------------------------------------|
 B||------------------------------------------------------------66-----|

 E||----------------------------|
 B||----------------------------|
F#||----------------------------|
 B||-0-3-2-0-2-3-2-3------------|

(chorus)
(verse)
(chorus until fade)
            
Submit corrections

comments powered by Disqus
↑ Back to top | Greyhoundz Bass for Koro. Lyrics for acoustic guitar and electric guitar. Tablatures and chords are parodies/interpretations of the original songs. You may use it for private study, scholarship, research or language learning purposes only