>
 >
Tommy

Tommy Guitar Tabs

Grey Box - Tommy chords, tabs, tablatures, lyrics

Guitar lessons | Add/correct | Request | Top 50 tabs Artists:  A B C D E F G H I J K L M N O P Q R S T U V W X Y Z 0-9

Tommy Guitar Tabs – Grey Box

CD, Sheet music, Poster

Do you like Tommy? Share with your friends now
TabsTabs v2
Here  is  an  100%  correct  tab  of  Tommy  by  Grey  Box.

INTRO

[------------------------------------------------------------]
[------------------------------------------------------------]
[------------------------------------------------------------]
[-10---------------106--------------------------------------]
[--8----------------8-4--------------------------------------]
[------------------------------------------------------------]
Play this x2 but on the 2nd time play the 1st  bit over again.

2nd part of intro

[-----------------------------------------]
[-----------------------------------------]
[-----------------------------------------]
[-6----------888------------------------]
[-4----6-----6-6-6------------------------]
[------4----------------------------------]
Play this x4


VERSE

[----------------------------------------------------------------------------]
[----------------------------------------------------------------------------]
[----------------------------------------------------------------------------]
[-10-----------10----------------8---------8---------------------------------]
[--9------------910----------106---------6---8-----------------------------]
[------------------9-----------9---------------6-----------------------------]
Verse is palm muted, listen to CD to find out how its played


CHORUS

[----------------------------------------------------------------------------------]
[----------------------------------------------------------------------------------]
[----------------------------------------------------------------------------------]
[-10-------10---6--------6---------------------------------------------------------]
[--9--------9---4--------4----8----------8----4-----444-4-4----------------------]
[-----------------------------6----------6----2-----2-2-2-2-2----------------------]





Comments


Popular Grey Box tabs & chords
Beer Man Tabs
Can Forget Tabs
Cant You See Tabs
Dimentia Tabs
Lithosphere Tabs
My Struggle Tabs
My Struggle 1 Tabs
The Dark Night Tabs
The Homeless Song Tabs
We Suck Tabs


Song lyrics



↑ Back to top | Tablatures and chords are parodies/interpretations of the original songs. You may use it for private study, scholarship, research or language learning purposes only
© 2014 AZChords.com Contact us | Privacy policy | DMCA | Add/correct tabs | Request tabs | Top 50 tabs