» » »

Grey Box, Tommy Tabs (ver.1)

Artists:  A B C D E F G H I J K L M N O P Q R S T U V W X Y Z # 

Tommy Tabs (ver.1)

Grey Box Tabs
Rating:
0/5 (0 votes)
Tommy lessons Tabs too difficult? Try these video lessons and learn fast
                Here  is  an  100%  correct  tab  of  Tommy  by  Grey  Box.

INTRO

[------------------------------------------------------------]
[------------------------------------------------------------]
[------------------------------------------------------------]
[-10---------------10—6--------------------------------------]
[--8----------------8-4--------------------------------------]
[------------------------------------------------------------]
Play this x2 but on the 2nd time play the 1st  bit over again.

2nd part of intro

[-----------------------------------------]
[-----------------------------------------]
[-----------------------------------------]
[-6----------8—8—8------------------------]
[-4----6-----6-6-6------------------------]
[------4----------------------------------]
Play this x4


VERSE

[----------------------------------------------------------------------------]
[----------------------------------------------------------------------------]
[----------------------------------------------------------------------------]
[-10-----------10----------------8---------8---------------------------------]
[--9------------9—10----------10—6---------6---8-----------------------------]
[------------------9-----------9---------------6-----------------------------]
Verse is palm muted, listen to CD to find out how its played


CHORUS

[----------------------------------------------------------------------------------]
[----------------------------------------------------------------------------------]
[----------------------------------------------------------------------------------]
[-10-------10---6--------6---------------------------------------------------------]
[--9--------9---4--------4----8----------8----4-----4—4—4-4-4----------------------]
[-----------------------------6----------6----2-----2-2-2-2-2----------------------]
            

comments powered by Disqus
↑ Back to top | Grey Box Tabs for Tommy. Lyrics for acoustic guitar and electric guitar. Tablatures and chords are parodies/interpretations of the original songs. You may use it for private study, scholarship, research or language learning purposes only