» » »

Gretchen Wilson, Home Wrecker Tabs (ver.2)

Artists:  A B C D E F G H I J K L M N O P Q R S T U V W X Y Z # 

Home Wrecker Tabs (ver.2)

Gretchen Wilson Tabs
 Rating:
4/5 (4 votes)
Home Wrecker lessons Tabs too difficult? Try these video lessons and learn fast
1
                
Solo:
E------------------7--7-7--7------7b-7-5--5-7--------------------7-
B----7b-7b~------5-7b---7b-7br-5~-------7b---7br5-7-5-7-5----5-/9--
G--/6----------------------------------------------6-------/6------
D------------------------------------------------------------------
A------------------------------------------------------------------
E------------------------------------------------------------------


E--------------------
B-7b-7p5-------------
G-------6------------
D---------6-4\2-2/4--
A--------------4-----
E--------------------


lead at 3:01
E------12--12-12---------------------
B--12b-----------12b-12--------------
G----------------------11pbr-9-11/13-
D------------------------------------
A------------------------------------
E------------------------------------

lead at 3:08
E--7b-7---7---------------
B-------7b--7b-7p5-5~--3~-
G-----------------6-------
D-------------------------
A-------------------------
E-------------------------
            
Submit corrections

comments powered by Disqus
↑ Back to top | Gretchen Wilson Tabs for Home Wrecker. Lyrics for acoustic guitar and electric guitar. 1 Tablatures and chords are parodies/interpretations of the original songs. You may use it for private study, scholarship, research or language learning purposes only