>
 >
Say Say Say

Say Say Say Bass Tabs

Gran Ronde - Say Say Say chords, tabs, tablatures, lyrics

Guitar lessons | Add/correct | Request | Top 50 tabs Artists:  A B C D E F G H I J K L M N O P Q R S T U V W X Y Z 0-9

Say Say Say Bass Tabs – Gran Ronde

CD, Sheet music, Poster

Do you like Say Say Say? Share with your friends now
Bass TabsTabs
(0:00)
G|----------------|6-6-6-6-6-6-6-6-|----------------|----------------|
D|----------------|----------------|6-6-6-6-6-6-6-6-|6-6-6-6-6-6-6-6-|
A|2-2-2-2-2-2-2///|----------------|----------------|----------------|
E|----------------|----------------|----------------|----------------|

G|4-4-4-4-4-4-4-4-|----------------|----------------|----------------|
D|----------------|----------------|----------------|----------------|
A|----------------|4-4-4-4-4-4-4-4-|----------------|----------------|
E|----------------|----------------|4-4-4-4-4-4-4-4-|4-4-4-4-4-4-4-4-|


(0:14)
G|----------------|----------------|----------------|----------------|
D|----------------|----------------|----------------|----------------|
A|2---2---2---2---|2---2---2---2---|----------------|----------------|
E|----------------|----------------|4---4---4---4---|4---4---4---4---|


(0:28)
G|----------------|----------------|----------------|----------------|
D|----------------|----------------|----------------|----------------|
A|2---2---2---2---|4---4---4-2-4-2-|----------------|----------------|
E|----------4---4-|----------------|4---4---4-0-2---|4---4---4-2-4-2-|


(0:41)
G|----------------|----------------|----------------|----------------|
D|----------------|----------------|----2-2-----2-2-|----------------|
A|----------------|------------2-2-|4-4-----4-4-----|4-4-4-2-4-2-4-2-|
E|2-2-2-2-2-2-2-2-|2-2-2-2-4-4-----|----------------|----------------|

G|----------------|----------------|----------------|-----///11111111|
D|----------------|----------------|----------------|4-4-4--^elevens^|
A|----------------|----------------|----------------|----------------|
E|0-0-0-0-0-0-0-0-|0-0-0-0-0-0-0-0-|2-2-2-2-2-2-2-2-|----------------|

G|----------------|----------------|----------------|----------------|
D|----------------|----------------|----------------|----------------|
A|----------------|------------2-2-|4-4-4-4-4-4-4-4-|4-4-4-4-4-4-2-4-|
E|2-2-2-2-2-2-2-2-|2-2-2-2-4-4-----|----------------|----------------|

G|----------------|----------------|----------------|----------------|
D|2-2-2-2-2-2-2-2-|2-2-2-2-2-2-2-2-|4-4-4-4-4-4-4-4-|----------------|
A|----------------|----------------|----------------|----------------|
E|----------------|----------------|----------------|2-2-2-2-2-2-2-2-|


(1:08)
G|----------------|6-6-6-6-6-6-6-6-|----------------|----------------|
D|----------------|----------------|6-6-6-6-6-6-6-6-|6-6-6-6-6-6-6-6-|
A|2-2-2-2-2-2-2///|----------------|----------------|----------------|
E|----------------|----------------|----------------|----------------|

G|4-4-4-4-4-4-4-4-|----------------|----------------|----------------|
D|----------------|----------------|----------------|----------------|
A|----------------|4-4-4-4-4-4-4-4-|----------------|----------------|
E|----------------|----------------|4-4-4-4-4-4-4-4-|4-4-4-4-4-4-4-4-|


(1:22)
G|----------------|----------------|----------------|----------------|
D|----------------|----------------|----------------|----------------|
A|2---2---2---2---|2---2---2---2---|----------------|----------------|
E|----------------|----------------|4---4---4---4---|4---4---4---4---|


(1:35)
G|----------------|----------------|----------------|----------------|
D|----------------|----------------|----------------|----------------|
A|2---2---2---2---|4---4---4-2-4-2-|----------------|----------------|
E|----------4---4-|----------------|4---4---4-0-2---|4---4---4-2-4-2-|


(1:49)
G|----------------|----------------|----------------|----------------|
D|----------------|----------------|----2-2-----2-2-|----------------|
A|----------------|------------2-2-|4-4-----4-4-----|4-4-4-2-4-2-4-2-|
E|2-2-2-2-2-2-2-2-|2-2-2-2-4-4-----|----------------|----------------|

G|----------------|----------------|----------------|----------11----|
D|----------------|----------------|--------4-4-4-4-|4-4-4-4/11--11\\|
A|----------------|----------------|----------------|-------^elevens^|
E|0-0-0-0-0-0-0-0-|0-0-0-0-0-0-0-0-|2-2-2-2---------|----------------|

G|----------------|----------------|----------------|----------------|
D|----------------|----------------|----------------|----------------|
A|----------------|------------2-2-|4-4-4-4-4-4-4-4-|4-4-4-4-4-4-2-4-|
E|2-2-2-2-2-2-2-2-|2-2-2-2-4-4-----|----------------|----------------|

G|----------------|----------------|----------------|----------------|
D|2-2-2-2-2-2-2-2-|2-2-2-2-2-2-2-2-|4-4-4-4-4-4-4-4-|4-4-4-4-4-4-4-4-|
A|----------------|----------------|----------------|----------------|
E|----------------|----------------|----------------|----------------|


(2:16)
G|----------------|----------------|----------------|----------------|
D|6~--------------|--------6-4-6-4-|----------------|----------------|
A|----------------|----------------|----------------|----------------|
E|----------------|----------------|7~--------------|----------------|

G|----------------|----------------|----------------|----------------|
D|----------------|----------------|----------------|----------------|
A|4~--------------|----------------|7~------------7-|--6-7-6-7-6---4-|
E|----------------|----------------|----------------|------------7---|

G|----------------|----------------|----------------|----------------|
D|6---6-4-6---6-4-|6---6-4-6-4---4-|----------------|9-9-9-9-9-9-9-9-|
A|----------------|------------7---|----------------|----------------|
E|----------------|----------------|7---7-7-7---7///|----------------|

G|----------------|6-6-6-6-6-6-6-6-|9-9-9-9-9-9-9-9-|9-9-9-9-9-9-9-9-|
D|----------------|----------------|----------------|----------------|
A|4---4-4-4---4///|----------------|----------------|----------------|
E|----------------|----------------|----------------|----------------|


(2:42)
G|----------------|
D|----------------|
A|----------------|
E|0~--------------|


(2:44)
G|----------------|----------------|----------------|----------------|
D|----------------|----------------|----2-2-----2-2-|----------------|
A|----------------|------------2-2-|4-4-----4-4-----|4-4-4-2-4-2-4-2-|
E|2-2-2-2-2-2-2-2-|2-2-2-2-4-4-----|----------------|----------------|

G|----------------|----------------|----------------|-----///11111111|
D|----------------|----------------|----------------|4-4-4--^elevens^|
A|----------------|----------------|----------------|----------------|
E|0-0-0-0-0-0-0-0-|0-0-0-0-0-0-0-0-|2-2-2-2-2-2-2-2-|----------------|

G|----------------|----------------|----------------|----------------|
D|----------------|----------------|----------------|----------------|
A|----------------|------------2-2-|4-4-4-4-4-4-4-4-|4-4-4-4-4-4-2-4-|
E|2-2-2-2-2-2-2-2-|2-2-2-2-4-4-----|----------------|----------------|

G|----------------|----------------|----------------|----------------|
D|2-2-2-2-2-2-2-2-|2-2-2-2-2-2-2-2-|4-4-4-4-4-4-4-4-|----------------|
A|----------------|----------------|----------------|----------------|
E|----------------|----------------|----------------|2-2-2-2-2-2-2-2-|





Comments


Popular Gran Ronde tabs & chords
Fist Fight Bass Tabs
On And On Bass Tabs
Wisdom Bass Tabs
Fist Fight Tabs
On And On Tabs
Run Me Over Tabs
Say Say Say Tabs
Set It Off Tabs


Song lyrics



↑ Back to top | Tablatures and chords are parodies/interpretations of the original songs. You may use it for private study, scholarship, research or language learning purposes only
© 2014 AZChords.com Contact us | Privacy policy | DMCA | Add/correct tabs | Request tabs | Top 50 tabs