>
 >
Say Say Say

Say Say Say Guitar Tabs

Gran Ronde - Say Say Say chords, tabs, tablatures, lyrics

Guitar lessons | Add/correct | Request | Top 50 tabs Artists:  A B C D E F G H I J K L M N O P Q R S T U V W X Y Z 0-9

Say Say Say Guitar Tabs – Gran Ronde

CD, Sheet music, Poster

Do you like Say Say Say? Share with your friends now
Bass TabsTabs
(0:00)
Guitar 1
E|--------------------------------|--------------------------------|
B|--------------------------------|--------------------------------|
G|8-8-8-8-8-8-8-8-9-9-9-9-9-9-9-9-|6-6-6-6-6-6-6-6-6-6-6-6-6-6-6-6-|
D|9-9-9-9-9-9-9-9-1111111111111111|8-8-8-8-8-8-8-8-8-8-8-8-8-8-8-8-|
A|9-9-9-9-9-9-9-9-1111111111111111|8-8-8-8-8-8-8-8-8-8-8-8-8-8-8-8-|
E|7-7-7-7-7-7-7-7-9-9-9-9-9-9-9-9-|6-6-6-6-6-6-6-6-6-6-6-6-6-6-6-6-|

Guitar 2
E|----------------2-2-2-2-2-2-2---|----------------4-4-4-4-4-4-4-4-|
B|----4-4-2-2---------------------|----4-4-2-2---------------------|
G|4-4---------4-4-----------------|1-1---------4-4-----------------|
D|------------------------------4-|--------------------------------|
A|--------------------------------|--------------------------------|
E|--------------------------------|--------------------------------|

E|--------------------------------|--------------------------------|
B|----4-4-2-2---------------------|--------------------------------|
G|4-4---------4-4-------1-1-1-1-1-|3-3-3-3-3-3-3-3-3-4-4-4-4-4-4-4-|
D|----------------4-4-4-----------|--------------------------------|
A|--------------------------------|--------------------------------|
E|--------------------------------|--------------------------------|


(0:14)
Guitar 1
E|7~------------------------------|4~------------------------------|
B|7~------------------------------|4~------------------------------|
G|8~------------------------------|4~------------------------------|
D|9~------------------------------|6~------------------------------|
A|9~------------------------------|6~------------------------------|
E|7~------------------------------|4~------------------------------|

Guitar 2
E|--------------------------------|--------------------------------|
B|--------------------------------|--------------------------------|
G|11~-----------------------11\\\\|8~------------------------------|
D|--------------------------------|--------------------------------|
A|9~------------------------9\\\\\|6~------------------------------|
E|--------------------------------|--------------------------------|

E|--------------------------------|--------------------------------|
B|--------------------------------|--------------------------------|
G|--------------------------------|------------------------------3-|
D|--------------------------------|--------------------------------|
A|--------------------------------|--------------------------------|
E|--------------------------------|--------------------------------|

E|----------------2~--------------|----------------4~--------------|
B|----4-4-2-2---------------------|----4-4-2-2---------------------|
G|4-4---------4-4-----------------|1-1---------4-4-----------------|
D|------------------------------4-|--------------------------------|
A|--------------------------------|--------------------------------|
E|--------------------------------|--------------------------------|

E|----------------2-2-2-2-2-2-2-2-|4-4-4-4-4-4-4-4-4-6-6-6-6-7-7-7-|
B|----4-4-2-2---------------------|--------------------------------|
G|4-4---------4-4-----------------|--------------------------------|
D|--------------------------------|--------------------------------|
A|--------------------------------|--------------------------------|
E|--------------------------------|--------------------------------|


(0:41) - Can't hear any distinguishable guitar in the chorus,
         just a mess of reverb.


(1:08) - Same as (0:00)


(1:22) - Same as (0:14)


(1:49) - Chorus again. . . 


(2:16)
Guitar 1
E|--------------------------------|--------------------------------|
B|--------------------------------|--------------------------------|
G|4~------------------------------|8~------------------------------|
D|6~------------------------------|9~------------------------------|
A|6~------------------------------|9~------------------------------|
E|4~------------------------------|7~------------------------------|

E|--------------------------------|--------------------------------|
B|5~------------------------------|9~------------------------------|
G|6~------------------------------|9~------------------------------|
D|6~------------------------------|9~------------------------------|
A|4~------------------------------|7~------------------------------|
E|--------------------------------|--------------------------------|

Guitar 2 
E|4~----------------------4~------|2~------------------------------|
B|------4~------------------------|------4~------------------------|
G|------------4~------------------|--------------------------------|
D|--------------------------------|--------------------------------|
A|--------------------------------|--------------------------------|
E|--------------------------------|--------------------------------|

E|--------------------------------|------------------------------2/|
B|5~----4~----2~----------2~--4~--|5~------------------------------|
G|--------------------------------|------4~------------------------|
D|--------------------------------|------------6~----4-6-4-6-4-6---|
A|--------------------------------|--------------------------------|
E|--------------------------------|--------------------------------|


(2:42)
E|--------------------------------|
B|4~------------------------------|
G|4~------------------------------|
D|6~------------------------------|
A|6~------------------------------|
E|4~------------------------------|


(2:44) - Chorus.


(3:11)
E|//9-9-9-9-9-9-9-9-7-7-7-7-6-6-6-|6-6-7-7-6-6-4-------------------|
B|--------------------------------|--------------5-5-5-4-5-5-5-5-5-|
G|--------------------------------|--------------------------------|
D|--------------------------------|--------------------------------|
A|--------------------------------|--------------------------------|
E|--------------------------------|--------------------------------|

E|6-6-7-7-6-6-4-------------------|--------------------------------|
B|--------------5-5-5-5-4-4-4-4-4-|7-7-7-7-9-9-9-9-1111111112121212|
G|--------------------------------|---------------^elevens---------|
D|--------------------------------|---------------and-twelves^-----|
A|--------------------------------|--------------------------------|
E|--------------------------------|--------------------------------|

E|--------------------------------|--------------18------18----18--|
B|14141414141414141414141414161616|16^^^^^^^^^^^^----1717----17----|
G|--------------------------------|--------------------------------|
D|--------------------------------|---bend to 17-------------------|
A|--------------------------------|--------------------------------|
E|--------------------------------|--------------------------------|

E|18--18^^^^^^^^^^^^18181818161614|14~-----------------------------|
B|-------------------------^---^--|--------------------------------|
G|-------bend to 19-------slide---|--------------------------------|
D|--------------------------------|--------------------------------|
A|--------------------------------|--------------------------------|
E|--------------------------------|--------------------------------|





Comments


Popular Gran Ronde tabs & chords
Fist Fight Bass Tabs
On And On Bass Tabs
Say Say Say Bass Tabs
Wisdom Bass Tabs
Fist Fight Tabs
On And On Tabs
Run Me Over Tabs
Set It Off Tabs


Song lyrics



↑ Back to top | Tablatures and chords are parodies/interpretations of the original songs. You may use it for private study, scholarship, research or language learning purposes only
© 2014 AZChords.com Contact us | Privacy policy | DMCA | Add/correct tabs | Request tabs | Top 50 tabs