» » »

On And On Bass tabs (ver.1)

Artists:  A B C D E F G H I J K L M N O P Q R S T U V W X Y Z # 

On And On Bass tabs (ver.1)

Gran Ronde
Rating:
5/5 (1 vote)

Hard to play? Try these video lessons and learn fast.
                (0:04)
G|----------------|----------------|----------------|----------------|
D|----------------|----------------|----------------|----------------|
A|----------------|----------------|----------------|------4-4-4-6-6-|
E|4-4-4-4-4-2-2-2-|4-4-4-4-4-2-2-2-|7-7-7-7-7-2-2-4-|7-7-7-----------|


(0:18)
G|----------------|----------------|----------------|----------------|
D|----------------|----------------|----------------|----------------|
A|----------------|----------------|----------------|------4-4-4-6-6-|
E|4-4-------2-2/4-|4-4-------2-2///|7-7-------2-2///|7-7-7-----------|


(0:32)
G|----------------|----------------|----------------|----------------|
D|----6-6-4-4-----|----6-6-4-4-----|----4-4---------|----4-4---------|
A|------------6-6-|------------6-6-|--------4-4-6-6-|--------4-4-6-6-|
E|4-4-------------|4-4-------------|7-7-------------|7-7-------------|


(0:46)
G|----------------|----------------|----------------|----------------|
D|----------------|6-6-6-6-6-6-8-8-|9-9-9-9-9-9-8-8-|6-6-6-6-6-6-----|
A|7-7-7-7-7-7-9-9-|----------------|----------------|------------9-9-|
E|----------------|----------------|----------------|----------------|

G|----------------|----------------|----------------|----------------|
D|----------------|6-6-6-6-6-6-8-8-|9-9-9-9-9-9-8-8-|6-6-6-6-6-6-----|
A|7-7-7-7-7-7-9-9-|----------------|----------------|------------9-9-|
E|----------------|----------------|----------------|----------------|

G|----------------|----------------|----------------|----------------|
D|----------------|----------------|----------------|----------------|
A|----------------|----------------|----------------|----------------|
E|0-0-0-0-0-0-2-2-|4-4-4-4-4-4-6-6-|7-7-7-7-7-7-6-6-|4-4-4-4-4-4-2-2-|

G|----------------|----------------|----------------|----------------|
D|----------------|6-6-6-6-6-6-8-8-|9-9-9-9-9-9-8-8-|6-6-6-6-6-6-----|
A|7-7-7-7-7-7-9-9-|----------------|----------------|------------9-9-|
E|----------------|----------------|----------------|----------------|


(1:12)
G|----------------|----------------|----------------|----------------|
D|----------------|------------////|6~--------------|----------------|
A|----------------|----------------|----------------|----------------|
E|4~--------------|----------------|----------------|----------------|


(1:20) - Same as (0:18)


(1:34) - Same as (0:32)


(1:46) - Same as (0:46)


(2:14)
G|----------------|----------------|----------------|----------------|
D|----------------|------------////|4~--------------|--------4-6-4---|
A|----------------|----------------|----------------|--------------6-|
E|4~--------------|----------------|----------------|----------------|

G|----------------|----------------|----------------|----------------|
D|----------------|------------////|6~--------------|----------------|
A|----------------|----------------|----------------|----------------|
E|4~--------------|----------------|----------------|----------------|

(2:28)
G|----------------|----------------|----------------|----------------|
D|----------------|----------------|----------------|----------------|
A|----------------|7-7-------7-7-9-|----------------|----------------|
E|9-9-------7-7-9-|----------------|7-7-------7-7-9-|4-4---2-4-2-0-2/|

G|----------------|----------------|----------------|----------------|
D|----------------|----------------|------------9---|----------------|
A|----------------|7-7-------7-7-9-|1111------11--11|9-9---9-9-9---9-|
E|9-9-------7-7-9-|----------------|----------------|----------------|

G|----------------|----------------|----------------|----------------|
D|----------------|----------------|----------------|----------------|
A|----------------|----------------|----------------|----------------|
E|9-9-------7-9-7-|0-0-------0-0-2-|2-2-2-2-2-2-2-2-|2-2-2-2-2-2-2-2-|


(2:48) - Same as (0:46)


(3:16) - Same as (0:04)
            
Hard to play? Try these video lessons and learn fast. | Correct




comments powered by Disqus
↑ Back to top | Tablatures and chords are parodies/interpretations of the original songs. You may use it for private study, scholarship, research or language learning purposes only