» » »

On And On Tabs (ver.1)

Artists:  A B C D E F G H I J K L M N O P Q R S T U V W X Y Z # 

On And On Tabs (ver.1)

Gran Ronde
Rating:
5/5 (1 vote)

Hard to play? Try these video lessons and learn fast.
                (0:04)
E|------1111117-7-------7-7-7-----|1111117-7-7-9-9-6-6-6-7-7-7-6-6-|
B|9-9-9-----------7-7-7-------7-7-|--------------------------------|
G|--------------------------------|--------------------------------|
D|-------^elevens-----------------|--------------------------------|
A|--------------------------------|--------------------------------|
E|--------------------------------|--------------------------------|

(0:18)
E|4~-----------4\\2~-----------2//|4~-----------4//7~--------------|
B|4~-----------4\\2~-----------2//|4~-----------4//7~--------------|
G|--------------------------------|--------------------------------|
D|--------------------------------|--------------------------------|
A|--------------------------------|--------------------------------|
E|--------------------------------|--------------------------------|


(0:32)
E|4-4-----4-4-----4-4-----4-4-----|7-7-----7-7-----7-7-----7-7-----|
B|--------------------------------|--------------------------------|
G|--------------------------------|--------------------------------|
D|--------------------------------|--------------------------------|
A|--------------------------------|--------------------------------|
E|--------------------------------|--------------------------------|


(0:46)
E|1111117-7-7-------------7-7-----|1111117-7-7-------------7-7-----|
B|------------9-9-9-7-7-7-----9-9-|------------9-9-9-7-7-7-----9-9-|
G|-^elevens-----------------------|--------------------------------|
D|--------------------------------|--------------------------------|
A|--------------------------------|--------------------------------|
E|--------------------------------|--------------------------------|


(1:12)
E|4~-------------------------/////|7~-------------------^^^^^^^^^^^|
B|--------------------------------|--------------------------------|
G|--------------------------------|--------------------------------|
D|--------------------------------|--------------------------------|
A|--------------------------------|--------------------------------|
E|--------------------------------|--------------------------------|


(1:20) - Same as (0:18)


(1:34) - Same as (0:32)


(1:46) - same as (0:46)


(2:14)
E|11~----------11\9~-----------9//|11~----------11\9~--------------|
B|9~-----------9\\7~-----------7//|9~-----------9\\7~--------------|
G|--------------------------------|--------------------------------|
D|--------------------------------|--------------------------------|
A|--------------------------------|--------------------------------|
E|--------------------------------|--------------------------------|


(2:28)
E|--------------------------------|--------------------------------|
B|--------------------------------|7-7-7-5-5-5-4-4-4-2-2-2-4-2-----|
G|1-1-1-3-3-3-4-4-4-6-6-6-4-4-3-3-|----------------------------4---|
D|--------------------------------|--------------------------------|
A|--------------------------------|--------------------------------|
E|--------------------------------|--------------------------------|

E|--------------------------------|------------4-4-4---------------|
B|--------------------------------|7-7-7-5-5-5-------7-7-7-5-5-4-4-|
G|1-1-1-3-3-3-4-4-4-6-6-6-4-4-3-3-|--------------------------------|
D|--------------------------------|--------------------------------|
A|--------------------------------|--------------------------------|
E|--------------------------------|--------------------------------|

E|--------------------------------|------------6-6-6-9-9-9-11111111|
B|--------------------------------|7-7-7-9-9-9---------------------|
G|1-1-1-3-3-3-4-4-4-6-6-6-4-4-3-3-|------------------------^elevens|
D|--------------------------------|--------------------------------|
A|--------------------------------|--------------------------------|
E|--------------------------------|--------------------------------|


(2:48) - Same as (0:46)


(3:16) - Same as (0:04)
            
Hard to play? Try these video lessons and learn fast. | Correct




comments powered by Disqus
↑ Back to top | Tablatures and chords are parodies/interpretations of the original songs. You may use it for private study, scholarship, research or language learning purposes only