» » »

Gran Ronde, Fist Fight Tabs (ver.1)

Artists:  A B C D E F G H I J K L M N O P Q R S T U V W X Y Z # 

Fist Fight Tabs (ver.1)

Gran Ronde Tabs
Rating:
5/5 (1 vote)
Fist Fight lessons Tabs too difficult? Try these video lessons and learn fast
                (0:02)
Guitar 1 (Tremolo Picking)
E|1-1-1-1-1-1-1-1-1-1-1-1-1-1-1-1-|1-1-1-1-1-1-1-1-1-1-1-1/6-6-6-6/|
B|--------------------------------|--------------------------------|
G|--------------------------------|--------------------------------|
D|--------------------------------|--------------------------------|
A|--------------------------------|--------------------------------|
E|--------------------------------|--------------------------------|

E|8-8-8-8-8-8-8-8-8-8-8-8-8-8-8-8-|8-8-8-8-8-8-8-8-8-8-8-8/11111111|
B|--------------------------------|--------------------------------|
G|--------------------------------|-----------------------^elevens-|
D|--------------------------------|--------------------------------|
A|--------------------------------|--------------------------------|
E|--------------------------------|--------------------------------|

Guitar 2
E|----6-------6-------4-------4---|----6-------6-------4-------4---|
B|--6---6---6---6---6---6---6---6-|--6---6---6---6---6---6---6---6-|
G|6-------6-------6-------6-------|6-------6-------6-------6-------|
D|--------------------------------|--------------------------------|
A|--------------------------------|--------------------------------|
E|--------------------------------|--------------------------------|

E|----4-------4-------4-------4---|----4-------4-------4-------4---|
B|--6---6---6---6---6---6---6---6-|--6---6---6---6---6---6---6---6-|
G|--------------------------------|--------------------------------|
D|3-------3-------3-------3-------|3-------3-------3-------3-------|
A|--------------------------------|--------------------------------|
E|--------------------------------|--------------------------------|


(0:38)
Guitar 1 (Tremolo Picking)
E|4-4-4-4-4-4-4-4-4-4-4-4-4-4-4-4-|
B|--------------------------------|
G|--------------------------------|
D|--------------------------------|
A|--------------------------------|
E|--------------------------------|

Guitar 2
E|----4-------4-------4-------4---|
B|--4---4---4---4---4---4---4---4-|
G|1-------1-------1-------1-------|
D|--------------------------------|
A|--------------------------------|
E|--------------------------------|


(0:41)
Guitar 1
E|--------------------------------|--------------------------------|
B|--------------------------------|--------------------------------|
G|--------------------------------|--------------------------------|
D|3-3-3-3-3-3-3-3-3-3-3-3/10101010|--------------------------------|
A|-----------------------^tens----|3-3-3-3-3-3-3-3-3-3-3-3/13131313|
E|--------------------------------|---------------------thirteens^-|

E|--------------------------------|--------------------------------|
B|--------------------------------|--------------------------------|
G|--------------------------------|--------------------------------|
D|--------------------------------|6-6-6-6-6-6-6-6-6-6-6-6-6-6-6-6-|
A|----------------4-4-4-4-4-4-4-4-|--------------------------------|
E|6-6-6-6-6-6-6-6-----------------|--------------------------------|

Guitar 2
E|4---4---4---4---4---4---8-8-8-8-|4---4---4---4---4---4---6-6-6-6-|
B|6---6---6---6---6---6---6-6-6-6-|6---6---6---6---6---6---6-6-6-6-|
G|5---5---5---5---5---5---5-5-5-5-|5---5---5---5---5---5---5-5-5-5-|
D|--------------------------------|--------------------------------|
A|--------------------------------|--------------------------------|
E|--------------------------------|--------------------------------|

E|3---3---3---3---3---3---3-3-3-3-|3---3---3---3---3---3---3-3-3-3-|
B|4---4---4---4---4---4---4-4-4-4-|4---4---4---4---4---4---4-4-4-4-|
G|5---5---5---5---5---5---5-5-5-5-|5---5---5---5---5---5---5-5-5-5-|
D|--------------------------------|--------------------------------|
A|--------------------------------|--------------------------------|
E|--------------------------------|--------------------------------|


(1:05) - Same as (0:02)


(1:53) - Same as (0:38)


(1:56) - Same as (0:41)


(2:20)
Guitar 2
E|8-8-----8-8-----8-8-----8-8-----|8-8-----8-8-----8-8-----8-8-8-8-|
B|9-9-----9-9-----9-9-----9-9-----|9-9-----9-9-----9-9-----9-9-9-9-|
G|1010----1010----1010----1010----|1010----1010----1010----10101010|
D|--------------------------------|--------------------------------|
A|----^tens-----------------------|--------------------------------|
E|--------------------------------|--------------------------------|

Guitar 1 (Comes in at 2:32)
E|8-8-8-----------8-8-8-----------|111111----------8-8-8-----------|
B|------9-9-9-----------9-9-9-----|------9-9-9-----------9-9-9-----|
G|------------1010------------1010|------------1010------------1010|
D|--------------------------------|-^elevens-----------------------|
A|--------------------------------|--------------------------------|
E|--------------------------------|--------------------------------|

E|6-6-6-----------6-6-6-----------|8-8-8-----------8-----------^^^^|
B|------9-9-9-----------9-9-9-----|------9-9-9---------------------|
G|------------1010------------1010|------------1010----------------|
D|--------------------------------|--------------------------------|
A|--------------------------------|--------------------------------|
E|--------------------------------|--------------------------------|


(2:44) - Same as (0:00)


(2:56) - Same as (0:38)


(2:59) - Same as (0:41)


(3:47) - Same as (0:00)


(4:11)
Guitar 2 only
E|----4-------4-------4-------4---|4~\\\\\\\-----------------------|
B|--4---4---4---4---4---4---4---4-|4~\\\\\\\-----------------------|
G|1-------1-------1-------1-------|1~\\\\\\\-----------------------|
D|--------------------------------|--------------------------------|
A|--------------------------------|--------------------------------|
E|--------------------------------|--------------------------------|
            

comments powered by Disqus
↑ Back to top | Gran Ronde Tabs for Fist Fight. Lyrics for acoustic guitar and electric guitar. Tablatures and chords are parodies/interpretations of the original songs. You may use it for private study, scholarship, research or language learning purposes only