» » »

Gran Ronde, Fist Fight Bass tabs (ver.1)

Artists:  A B C D E F G H I J K L M N O P Q R S T U V W X Y Z # 

Fist Fight Bass tabs (ver.1)

Gran Ronde Tabs
Rating:
5/5 (1 vote)
Fist Fight lessons Tabs too difficult? Try these video lessons and learn fast
                (0:02)
G|6-6-6-6-6-6-6-6-|6-6-6-6-6-6-6-6-|6-6-6-6-6-6-6-6-|6-6-6-6-6-6-6-6/|
D|----------------|----------------|----------------|----------------|
A|----------------|----------------|----------------|----------------|
E|----------------|----------------|----------------|----------------|

G|1010101010101010|1010101010101010|1010101010101010|1010101010101010|
D|--^tens^--------|----------------|----------------|----------------|
A|----------------|----------------|----------------|----------------|
E|----------------|----------------|----------------|----------------|


(0:38)
G|1-1-1-1-1-1-1-1-|1-1-1-1-1-1-1-1-|
D|----------------|----------------|
A|----------------|----------------|
E|----------------|----------------|


(0:41)
G|----------------|----------------|----------------|----------------|
D|3-3-3-3-3-3-3-3-|3-3-3-3-3-3-3-3-|----------------|----------------|
A|----------------|----------------|3-3-3-3-3-3-3-3-|3-3-3-3-3-3-3-3-|
E|----------------|----------------|----------------|----------------|

G|----------------|----------------|----------------|----------------|
D|----------------|----------------|----------------|----------------|
A|1-1-1-1-1-1-1-1-|1-1-1-1-1-1-1-1-|----------------|----------------|
E|----------------|----------------|4-4-4-4-4-4-4-4-|4-4-4-4-4-4-4-4-|


(1:05)
G|----------------|6-6-------------|----------------|--6-------------|
D|----------------|----------------|----------------|8-----8-----6\\\|
A|4~--------------|4-4-------------|----------------|----------------|
E|----------------|----------------|----------------|----------------|

G|----------------|----------------|----------------|----------------|
D|-------------///|3-3-------------|----------------|----------------|
A|----------------|----------------|----------------|----------------|
E|1~--------------|----------------|----------------|----------------|

G|----------------|6-6-------------|----------------|--6-------------|
D|----------------|----------------|----------------|8-----8-----6\\\|
A|4~--------------|4-4-------------|----------------|----------------|
E|----------------|----------------|----------------|----------------|

G|----------------|----------------|----------------|----------------|
D|----------------|----------------|----------------|----------------|
A|----------------|----------------|----------------|-------------\\\|
E|1~--------------|----------------|----------------|----------------|

G|----------------|6-6-------------|----------------|6-6------5-5-3\\|
D|----------------|----------------|----------------|----------------|
A|4~--------------|4-4-------------|4~--------------|4-4-------------|
E|----------------|----------------|----------------|----------------|

G|----------------|----------------|----------------|----------------|
D|3~--------------|----------------|----------------|----------------|
A|----------------|----------------|----------------|----------------|
E|----------------|1-1-------------|----------------|----------------|

G|----------------|6-6-------------|--6---6~--------|--6---6---------|
D|----------------|----------------|8---------------|8-----------8\\\|
A|4~--------------|4-4-------------|----------------|----------------|
E|----------------|----------------|----------------|----------------|

G|----------------|----------------|--3-------------|--3-3-----------|
D|-------------///|3-3-------------|6-----6~--------|6-----6---------|
A|----------------|----------------|----------------|--------8\\\\\\\|
E|1~--------------|----------------|----------------|----------------|


(1:53)
G|----------------|----------------|
D|-------------///|6-6-6-6-6-6-6-6-|
A|----------------|----------------|
E|4~--------------|----------------|


(1:56)
G|----------------|----------------|----------------|----------------|
D|3-3-3-3-3-3-3-3-|3-3-3-3-3-3-3-3-|----------------|----------------|
A|----------------|----------------|3-3-3-3-3-3-3-3-|3-3-3-3-3-3-3-3-|
E|----------------|----------------|----------------|----------------|

G|----------------|----------------|----------------|----------------|
D|----------------|----------------|----------------|----------------|
A|1-1-1-1-1-1-1-1-|1-1-1-1-1-1-1-1-|----------------|----------------|
E|----------------|----------------|4-4-4-4-4-4-4-4-|4-4-4-4-4-4-4-4-|

G|----------------|----------------|----------------|----------------|
D|3-3-3-3-3-3-3-3-|3-3-3-3-3-3-3-3-|----------------|----------------|
A|----------------|----------------|3-3-3-3-3-3-3-3-|3-3-3-3-3-3-3-3-|
E|----------------|----------------|----------------|----------------|

G|----------------|----------------|----------------|----------8-8-8-|
D|----------------|----------------|----------------|----------------|
A|1-1-1-1-1-1-1-1-|1-1-1-1-1-1-1-1-|----------------|----------------|
E|----------------|----------------|4-4-4-4-4-4-4-4-|4-4-4-4-4-------|


(2:20)
G|1010--101010--10|1010--101010--10|----------------|----------------|
D|-^tens^---------|----------------|1111--111111--11|1010--101313--13|
A|----------------|----------------|--^elevens^-----|----------------|
E|----------------|----------------|----------------|----------------|

G|----------------|13131313121212--|----------------|----------------|
D|----------------|-------^twelves^|----------------|------------10--|
A|1313--131313--13|----------------|1111--111111--11|1111--111113----|
E|--^thirteens^---|----------------|----------------|----------------|


(2:44)
G|6-6-6-6-6-6-6-6-|6-6-6-6-6-6-6-6-|6-6-6-6-6-6-6-6-|6-6-6-6-6-6-6-6/|
D|----------------|----------------|----------------|----------------|
A|----------------|----------------|----------------|----------------|
E|----------------|----------------|----------------|----------------|

G|1010101010101010|1010101010101010|1010101010101010|1010101010101010|
D|----------------|----------------|----------------|----------------|
A|----------------|----------------|----------------|----------------|
E|----------------|----------------|----------------|----------------|


(2:56)
G|1-1-1-1-1-1-1-1-|1-1-1-1-1-1-1-1-|
D|----------------|----------------|
A|----------------|----------------|
E|----------------|----------------|


(2:59)
G|----------------|----------------|----------------|----------------|
D|3-3-3-3-3-3-3-3-|3-3-3-3-3-3-3-3-|----------------|----------------|
A|----------------|----------------|3-3-3-3-3-3-3-3-|3-3-3-3-3-3-3-3-|
E|----------------|----------------|----------------|----------------|

G|----------------|----------------|----------------|----------------|
D|----------------|----------------|----------------|----------------|
A|1-1-1-1-1-1-1-1-|1-1-1-1-1-1-1-1-|----------------|----------------|
E|----------------|----------------|4-4-4-4-4-4-4-4-|4-4-4-4-4-4-4-4-|

G|----------------|----------------|----------------|----------------|
D|3-3-3-3-3-3-3-3-|3-3-3-3-3-3-3-3-|----------------|----------------|
A|----------------|----------------|3-3-3-3-3-3-3-3-|3-3-3-3-3-3-3-3-|
E|----------------|----------------|----------------|----------------|

G|----------------|----------------|----------------|----------------|
D|----------------|----------------|----------------|----------------|
A|1-1-1-1-1-1-1-1-|1-1-1-1-1-1-1-1-|----------------|--------6-6-6-6-|
E|----------------|----------------|4-4-4-4-4-4-4-4-|4-4-4-4---------|


(3:47)
G|----------------|----------------|----------------|----------------|
D|----------------|----------------|----------------|----------------|
A|4~--------------|----------------|----------------|----------------|
E|----------------|----------------|----------------|----------------|

G|----------------|----------------|----------------|----------------|
D|----------------|----------------|----------------|----------------|
A|----------------|----------------|----------------|----------------|
E|1~--------------|----------------|----------------|----------------|
            
Submit corrections

comments powered by Disqus
↑ Back to top | Gran Ronde Bass for Fist Fight. Lyrics for acoustic guitar and electric guitar. Tablatures and chords are parodies/interpretations of the original songs. You may use it for private study, scholarship, research or language learning purposes only