» » »

White Lines Bass tabs (ver.2)

Artists:  A B C D E F G H I J K L M N O P Q R S T U V W X Y Z # 

White Lines Bass tabs (ver.2)

Grandmaster Flash And The Furious Five
Rating:
0/5 (0 votes)

Hard to play? Try these video lessons and learn fast.
                -------------------------------------------------------------------------------
			     White Lines - Grandmaster Flash
-------------------------------------------------------------------------------

Tuning: Standard

dont expect the trumpet bit to be DEAD on its hard to hear and im no miracle worker.

The vocal chorus at the intro.

G|-------------14------------------------------------------------|
D|-----9---12----------------------------------------------------|
A|-10------------------------------------------------------------|
E|---------------------------------------------------------------|

Main Riff
G|-----------------------|-------------------------------------------|
D|-----------------------|-------------------------------------------|
A|-0-3--0-3--0-3--0-3--0-|-0-3--0-3--0-3--0-3--030-303--030-303------|
E|-----------------------|-------------------------------------------|

The Trumpet line: now this is HARD to nail: the last bit is played
very quickly, and you dont neseccarily have to pluck the notes:
 you can just hammer on from nowhere. its actually easier to use
your thumb for the lower notes.

G--------------------------------------------------------------------|
D-----5--3---3----3h5--3---3-------5--3---3---3h5p3------------------|
A----------5---5---------5---5----------5---5--------5-3/1-----------|
E-3------------------------------3--------------------------3-1-3----|

G--------------------------------------------------------------------|
D-----5--3---3----3-5-3--3-5-------5--3---3---3-5p3------------------|
A----------5---5--------5---------------5---5--------5-4-3-----------|
E-3------------------------------3-------------------------6-5-------|
            
Hard to play? Try these video lessons and learn fast. | Correct




comments powered by Disqus
↑ Back to top | Tablatures and chords are parodies/interpretations of the original songs. You may use it for private study, scholarship, research or language learning purposes only