» » »

Grand Funk Railroad, Heartbreaker Tabs (ver.1)

Artists:  A B C D E F G H I J K L M N O P Q R S T U V W X Y Z # 

Heartbreaker Tabs (ver.1)

Grand Funk Railroad Tabs
 Rating:
4/5 (4 votes)
Heartbreaker lessons Tabs too difficult? Try these video lessons and learn fast
1
                This is may second tab. You will notice it's not finished, but I hope it still helps.

It made this tab cause I couldn't find a tab of this song with the actual notes of, say,
parts. Again, I hope it helps!

Grand Funk Railroad - Heartbreaker

Part before drums come in
e|---------------------------|
B|--------------------2------|
G|------4-----4-----3---3----|
D|----2-----2-------------4--|
A|--4-----4-------4----------|
E|--------------2------------|

Pre-Verse

    Bm                                  A
e|-----2---2---------2-2--2-2-2------|------------------------------------|
B|-----3---3-3/5-3---3-3--3-3-3-3/5-3|--2-2--2-2-2-2/3-2--2-2--2-2-2-2/3-2|
G|-----4---4---------4-4--4-4-4------|--2-2--2-2-2--------2-2--2-2-2------|
D|-----4---4---------4-4--4-4-4------|--2-2--2-2-2--------2-2--2-2-2------|
A|--2--2-------------2-2--2-2-2------|--0-0--0-0-0--------0-0--0-0-0------|
E|-----------------------------------|------------------------------------|

   G                                    B           Bm          B
e|-----------------------------------|------------------------------------|
B|-3-3--3-3-3--------3-3--3-3-3------|--2---2---2---------------2---------|
G|-4-4--4-4-4-4/5-4--4-4--4-4-4-4/5-4|--3---3---3---4---4---4---3---------|
D|-5-5--5-5-5--------5-5--5-5-5------|--4---4---4---4---4---4---4---------|
A|-5-5--5-5-5--------5-5--5-5-5------|--4---4---4---2---2---2---4---------|
E|-3-3--3-3-3--------3-3--3-3-3------|--2---2---2---------------2---------|

For this part of the verse, only the chord needs to be played, the single note is the
note.

    Bm           A            G            B
e|-----7-----7-|----5-----5-|----3-----3-|-----------------2-2-2-2---|
B|-----7-----7-|----5-----5-|----3-----3-|-------------2-2-2-2-2-2---|
G|-----7-----7-|----6-----6-|----4-----4-|---------3-3-3-3-3-3-3-3---|
D|-----9-----9-|----7-----7-|----5-----5-|-----4-4-4-4-4-4-4-4-4-4---|
A|-------------|------------|------------|-4-4-4-4-4-4-4-4-4-4-4-4---|
E|--7-----7----|-5-----5----|-3-----3----|-2-2-2-2-2-2-2-2-2-2-2-2---|

   Bm                                A
e|---------------------------------|---------------------------------|
B|-------3h5p3-----------3h5p3-----|-------2h3p2-----------2h3p2-----|
G|-----4-------4-------4-------4---|-----2-------2-------2-------2---|
D|---4-----------4---4-----------4-|---2-----------2---2-----------2-|
A|-2---------------2---------------|-0---------------0---------------|
E|---------------------------------|---------------------------------|

   G                                 B
e|---------------------------------|---------------------------------|
B|---------------------------------|-----------------2--2--2--2--2--2|
G|-------4h5p4-----------4h5p4-----|-------3h4p3-----3--3--3--3--3--3|
D|-----5-------5-------5-------5---|-----4-------4---4--4--4--4--4--4|
A|---5-----------5---5-----------5-|---4-----------4-4--4--4--4--4--4|
E|-3---------------3---------------|-2---------------2--2--2--2--2--2|


Chorus (Almost the same as the Pre-Verse)

    Bm                                  A
e|-----2---2---------2-2--2-2-2------|------------------------------------|
B|-----3---3-3/5-3---3-3--3-3-3-3/5-3|--2-2--2-2-2-2/3-2--2-2--2-2-2-2/3-2|
G|-----4---4---------4-4--4-4-4------|--2-2--2-2-2--------2-2--2-2-2------|
D|-----4---4---------4-4--4-4-4------|--2-2--2-2-2--------2-2--2-2-2------|
A|--2--2-------------2-2--2-2-2------|--0-0--0-0-0--------0-0--0-0-0------|
E|-----------------------------------|------------------------------------|

   G                                    B
e|-----------------------------------|------------------------------------|
B|-3-3--3-3-3--------3-3--3-3-3------|--2--2--2--2--2--2--2--2--2--2--2--2|
G|-4-4--4-4-4-4/5-4--4-4--4-4-4-4/5-4|--3--3--3--3--3--3--3--3--3--3--3--3|
D|-5-5--5-5-5--------5-5--5-5-5------|--4--4--4--4--4--4--4--4--4--4--4--4|
A|-5-5--5-5-5--------5-5--5-5-5------|--4--4--4--4--4--4--4--4--4--4--4--4|
E|-3-3--3-3-3--------3-3--3-3-3------|--2--2--2--2--2--2--2--2--2--2--2--2|


    Bm                                  A
e|-----2---2---------2-2--2-2-2------|------------------------------------|
B|-----3---3-3/5-3---3-3--3-3-3-3/5-3|--2-2--2-2-2-2/3-2--2-2--2-2-2-2/3-2|
G|-----4---4---------4-4--4-4-4------|--2-2--2-2-2--------2-2--2-2-2------|
D|-----4---4---------4-4--4-4-4------|--2-2--2-2-2--------2-2--2-2-2------|
A|--2--2-------------2-2--2-2-2------|--0-0--0-0-0--------0-0--0-0-0------|
E|-----------------------------------|------------------------------------|

   G                                    B
e|-----------------------------------|------------------------------------|
B|-3-3--3-3-3--------3-3--3-3-3------|--2--2--2--2--2--2--2--2--2--2--2--2|
G|-4-4--4-4-4-4/5-4--4-4--4-4-4-4/5-4|--3--3--3--3--3--3--3--3--3--3--3--3|
D|-5-5--5-5-5--------5-5--5-5-5------|--4--4--4--4--4--4--4--4--4--4--4--4|
A|-5-5--5-5-5--------5-5--5-5-5------|--4--4--4--4--4--4--4--4--4--4--4--4|
E|-3-3--3-3-3--------3-3--3-3-3------|--2--2--2--2--2--2--2--2--2--2--2--2|

This verse has a slow solo played under the vocals.

e|------------------------------------------------------------7-10b12-10|
B|-------------------------------------------------------7-10-----------|
G|---7-9-9b11-7--------7-9-9b11-7--------7-9-9b11-7-9b11----------------|
D|-9------------7----9------------5----9--------------------------------|
A|----------------------------------------------------------------------|
E|----------------------------------------------------------------------|

Chorus

    Bm                                  A
e|-----2---2---------2-2--2-2-2------|------------------------------------|
B|-----3---3-3/5-3---3-3--3-3-3-3/5-3|--2-2--2-2-2-2/3-2--2-2--2-2-2-2/3-2|
G|-----4---4---------4-4--4-4-4------|--2-2--2-2-2--------2-2--2-2-2------|
D|-----4---4---------4-4--4-4-4------|--2-2--2-2-2--------2-2--2-2-2------|
A|--2--2-------------2-2--2-2-2------|--0-0--0-0-0--------0-0--0-0-0------|
E|-----------------------------------|------------------------------------|

   G                                    B
e|-----------------------------------|------------------------------------|
B|-3-3--3-3-3--------3-3--3-3-3------|--2--2--2--2--2--2--2--2--2--2--2--2|
G|-4-4--4-4-4-4/5-4--4-4--4-4-4-4/5-4|--3--3--3--3--3--3--3--3--3--3--3--3|
D|-5-5--5-5-5--------5-5--5-5-5------|--4--4--4--4--4--4--4--4--4--4--4--4|
A|-5-5--5-5-5--------5-5--5-5-5------|--4--4--4--4--4--4--4--4--4--4--4--4|
E|-3-3--3-3-3--------3-3--3-3-3------|--2--2--2--2--2--2--2--2--2--2--2--2|


    Bm                                  A
e|-----2---2---------2-2--2-2-2------|------------------------------------|
B|-----3---3-3/5-3---3-3--3-3-3-3/5-3|--2-2--2-2-2-2/3-2--2-2--2-2-2-2/3-2|
G|-----4---4---------4-4--4-4-4------|--2-2--2-2-2--------2-2--2-2-2------|
D|-----4---4---------4-4--4-4-4------|--2-2--2-2-2--------2-2--2-2-2------|
A|--2--2-------------2-2--2-2-2------|--0-0--0-0-0--------0-0--0-0-0------|
E|-----------------------------------|------------------------------------|

   G                                    B
e|-----------------------------------|------------------------------------|
B|-3-3--3-3-3--------3-3--3-3-3------|--2--2--2--2--2--2--2--2--2--2--2--2|
G|-4-4--4-4-4-4/5-4--4-4--4-4-4-4/5-4|--3--3--3--3--3--3--3--3--3--3--3--3|
D|-5-5--5-5-5--------5-5--5-5-5------|--4--4--4--4--4--4--4--4--4--4--4--4|
A|-5-5--5-5-5--------5-5--5-5-5------|--4--4--4--4--4--4--4--4--4--4--4--4|
E|-3-3--3-3-3--------3-3--3-3-3------|--2--2--2--2--2--2--2--2--2--2--2--2|

Another slow solo

e|-------------------------------------------------|
B|-------------------------------------------------|
G|---7-9-7--------7-9-7--------7-9-7----7-9-7-9b11-|
D|-9-------9----9-------9----9-------9-------------|
A|-------------------------------------------------|
E|-------------------------------------------------|

Unfortunatly I do not have the rest of this solo ( or the other solos) tabbed out, but
can improvise with a scale and it will sound good (thats what I do :P).

  This is the scale      For the other solos this is the scale
e|-----------------7-10-|-------------------------7-10-12-----------------|
B|------------7-10------|--------------------7-10-------------------------|
G|------6-7-9-----------|--------------6-7-9------------------------------|
D|--7-9-----------------|----------7-9------------------------------------|
A|----------------------|------7-9----------------------------------------|
E|----------------------|-7-10--------------------------------------------|

Following that slow solo, there is a part with arpeggios.
   Bm    x8 | A     x8 | G     x8 | B     x13
e|-7--------|-5--------|-3--------|-2--------|
B|---7------|---5------|---3------|---2------|
G|-----7----|-----6----|-----4----|-----4----|
D|----------|----------|----------|----------|
A|----------|----------|----------|----------|
E|----------|----------|----------|----------|

Another solo using the above scale, but this is what is played towards the end of the solo;

e|----------------------9-9-9-9-10-9--------------------------------------|
B|------10------10-------------------10--10b12--10b12--10b12-10b12-10b12--|
G|-9b11----9b11----9b11---------------------------------------------------|
D|------------------------------------------------------------------------|
A|------------------------------------------------------------------------|
E|------------------------------------------------------------------------|

e|------------------------------------------------------------------------|
B|-12b14--12b14-12b14-12p10----10-12b14-12b14-12b14-12p10-----------------|
G|--------------------------11--------------------------------------------|
D|------------------------------------------------------------------------|
A|------------------------------------------------------------------------|
E|------------------------------------------------------------------------|

To be completed

e|-----------------------------------|------------------------------------|
B|-----------------------------------|------------------------------------|
G|-----------------------------------|------------------------------------|
D|-----------------------------------|------------------------------------|
A|-----------------------------------|------------------------------------|
E|-----------------------------------|------------------------------------|
            
Submit corrections

comments powered by Disqus
↑ Back to top | Grand Funk Railroad Tabs for Heartbreaker. Lyrics for acoustic guitar and electric guitar. 1 Tablatures and chords are parodies/interpretations of the original songs. You may use it for private study, scholarship, research or language learning purposes only