>
 >
Give A Little Bit

Give A Little Bit Guitar Tabs

Goo Goo Dolls - Give A Little Bit chords, tabs, tablatures, lyrics

Guitar lessons | Add/correct | Request | Top 50 tabs Artists:  A B C D E F G H I J K L M N O P Q R S T U V W X Y Z 0-9

Give A Little Bit Guitar Tabs – Goo Goo Dolls

CD, Sheet music, Poster

Do you like Give A Little Bit? Share with your friends now
Bass TabsChordsChords v2TabsTabs v2Ukulele

Tuning: D G C F A D (Down 1 Step)



Intro:

--0-0-2-2---|
--2-2-3-3---|
--0-0-2-2---| x2
------------|
------------|
------------|

--3-3-0-0-0-0--3-3-0-0-0-0-3-3--|
--0-0-2-2-2-2--0-0-2-2-2-2-0-0--|
--0-0-0-0-0-0--0-0-0-0-0-0-0-0--|
--------------------------------|
--------------------------------|
--------------------------------|



Chorus:

--2------0--2------3--0------3--0------3--|
--3------2--3------3--2------3--2------3--|
--2------0--2------0--0------0--0------0--| x2
--0------2--0------0--2------0--2------0--|
---------0---------2--0------2--0------2--|
-------------------3---------3---------3--|



1st Verse:                                           I add this small part in quickly
                                                     just before the chorus.
---------0--0------------0--------------------0----  --------|
--3------0--0----3-------3------2------3-----------  --------|
--4------2--1----2-------0------------------0------  ----xx--|
--4------2--2----0-------2----2------4-------------  --77xx--|
--2------2--2----0-------0--------0------0------0--  --xxxx--|
---------0--0----2---------------------------------  --55xx--|



2nd Verse:

---------0--0------------3----3--------------------0--------------------0----  --------|
--3------0--0----3-------3----3------2------3-------------2------3-----------  --------|
--4------2--1----2-------0----0------------------0--------------------0------  ----xx--|
--4------2--2----0-------2----0----2------4-------------2------4-------------  --77xx--|
--2------2--2----0-------3----2--------0------0------0------0------0------0--  --xxxx--|
---------0--0----2------------3----------------------------------------------  --55xx--|



Solo:

------------|
------------|
--------2---| x2
--2^4-4---4-|
------------|
------------|

----------------|
----------------|
----------------|
--------0--2--4-|
--2--4----------|
----------------|

------------|
------------|
--------2---| x2
--2^4-4---4-|
------------|
------------|

----------------|
----------------|
----------------|
--------0--4--2-|
--2--4----------|
----------------|

------------|
------------|
--------2---| x2
--2^4-4---4-|
------------|
------------|

--2--0----------2--0--------------------------------0----|
--------3---0---------3---3---/5------2------3-----------|
--------------------------------------------------0------|
------------------------------------2------4-------------|
----------------------------------------0------0------0--|
---------------------------------------------------------|



Bridge:

--2-2-x-x-7-7-x-x--9--9-x-7-22--|
--3-3-x-x-8-8-x-x-10-10-x-8-33--|
--2-2-x-x-7-7-x-x--9--9-x-7-22--| x3
--0-0-x-x-0-0-x-x--0--0-x-0-00--|
--------------------------------|
--------------------------------|

--2------3--------------------0----  --------|
--3------3------2------3-----------  --------|
--2------0------------------0------  ----xx--|
--0------2----2------4-------------  --77xx--| ~ Back to chorus ~
---------3--------0------0------0--  --xxxx--|
-----------------------------------  --55xx--|


Final Verse:

---------0--0------------0----|
--3------0--0----3-------3----|
--4------2--1----2-------0----|
--4------2--2----0-------2----|
--2------2--2----0-------0----|
---------0--0----2------------|



Outro:

--2-2-x-x-7-7-x-x--9--9-x-7-22--|
--3-3-x-x-8-8-x-x-10-10-x-8-33--|
--2-2-x-x-7-7-x-x--9--9-x-7-22--| x3
--0-0-x-x-0-0-x-x--0--0-x-0-00--|
--------------------------------|
--------------------------------|

--2------3--------3--------0----3----0--2--------|
--3------3--------3--------3----3-------------3--|
--2------0--------0--------0----0----------2-----|
--0------2--------0--------2----0----------------|
---------3--------2--------0----2----------------|
--------------------------------3----------------|

--2-2-x-x-7-7-x-x--9--9-x-7-22--|
--3-3-x-x-8-8-x-x-10-10-x-8-33--|
--2-2-x-x-7-7-x-x--9--9-x-7-22--| x2
--0-0-x-x-0-0-x-x--0--0-x-0-00--|
--------------------------------|
--------------------------------|





Comments


Popular Goo Goo Dolls tabs & chords
Better Days 3 Chords
Extra Pale Chords
Girl Right Next To Me 1 Chords
Im Addicted Chords
So Long Chords
Think About Me 1 Chords
Always Know Where You Are Tabs
Before It's Too Late 2 Tabs
Hate This Place Tabs
Stay With You 2 Ukulele


Song lyrics



↑ Back to top | Tablatures and chords are parodies/interpretations of the original songs. You may use it for private study, scholarship, research or language learning purposes only
© 2014 AZChords.com Contact us | Privacy policy | DMCA | Add/correct tabs | Request tabs | Top 50 tabs