» » »

Good Shoes, In The City Tabs (ver.2)

Artists:  A B C D E F G H I J K L M N O P Q R S T U V W X Y Z # 

In The City Tabs (ver.2)

Good Shoes Tabs
 Rating:
4/5 (7 votes)
In The City lessons Tabs too difficult? Try these video lessons and learn fast
                ---------------------------------------------------------------------------
                          IN THE CITY - Good Shoes
---------------------------------------------------------------------------

Tuning: standard

intro:

e|------------------------------|-------------------------------|
b|------5----5----5-----5-----5-|-----3-----3-----3-----3-----3-|
g|----5-----5----5-----5-----5--|---3------3-----3-----3-----3--|
d|-5/7---5/7--5/7---5/7---5/7---|3/5---3/5---3/5----3/5---3/5---| X2
a|------------------------------|-------------------------------|
e|------------------------------|-------------------------------|

e|----------------------|
b|--5---3-2-1-0---------|
g|--------------3-2-1-0-|

verse/chorus

guitar 1 (throughout song)
    F                   C                    Dm
d|----------------------------------------------------------------------|
a|--8--8-8--8-8--8-8-8--------------------------------------------------|
e|----------------------8--8-8--8-8--8-8-8---10--10-10--10-10--10-10-10-|
    A            A#
d|------------------------|
a|------------------------|
e|--5--5-5--5-5--6-6-6--6-|

guitar 2
   F                            C
e|----------------------------|------------------------------|
B|-10---10---10--10---10---10-|------------------------------|
G|-----10---10-------10---10--|-9----9---9---10-9----12-10-9-|
D|----------------------------|----10--10---------10---------|
A|----------------------------|------------------------------|
E|----------------------------|------------------------------|
   Dm                         A            A#                          
e|--------------------------|-----------------------------------|
B|--------------------------|-----------------------------------|
G|-7--7-7--7-7--9-9--7--7-7-|-9--9-9--9-9--10--10--12--10--9-10-|
D|--------------------------|-----------------------------------|
A|--------------------------|-----------------------------------|
E|--------------------------|-----------------------------------| 

thats guitar 2's part for the first verse, improvise on that throughout the verses and chorus and solo.

outro: play intro again, and then play F chord.
            
Submit corrections

comments powered by Disqus
↑ Back to top | Good Shoes Tabs for In The City. Lyrics for acoustic guitar and electric guitar. Tablatures and chords are parodies/interpretations of the original songs. You may use it for private study, scholarship, research or language learning purposes only