» » »

Gomez, Notice Tabs (ver.1)

Artists:  A B C D E F G H I J K L M N O P Q R S T U V W X Y Z # 

Notice Tabs (ver.1)

Gomez Tabs
 Rating:
4.4/5 (7 votes)
Notice lessons Tabs too difficult? Try these video lessons and learn fast
                Alright. I submitted a tab for the intro of this song a few months ago. I got an email 
someone who corrected it and added the rest of the song and since he doesn't bother, I 
to upload it.
--------------------------------------------------------------------------
hey bro,
i have fixed up your tab (see attached) and wrote out the chords for
the rest of the song.

if you want to post it on the web you are welcome, I couldn't be bothered :)

if you like gomez, check out my band Taxidermists at


regards,
Benny
--------------------------------------------------------------------------
Here it is:

Tuning: Standard (E A D G B e).

e||--------------------------------------------------|
B||--------------------------------------------------|
G||--------------------------------------------------|
D||-----4-------4h-6-----4-------4-------4h-6--4-----|
A||-----------------------------------------------7--|
E||--0-------0--------0-------0-----0----------------|

E||-------------------------------------------||
B||-------------------------------------------||
G||-------------------------------------------||
D||-----2------2-----2----2--2-h4-p2----------||
A||---4-----4------4----4--------------4------||
E||-------------------------------------------||

E||-------------------------------------------||
B||-------------------------------------------||
G||-------------------------------------------||
D||------------4-------4------4---------------||
A||------6-------6-------6------6---6---------||
E||---4-----4------4-------4------4-----------||

E||-------------------------------------------||
B||-------------------------------------------||
G||-------------------------------------------||
D||------------6-------6------6---------------||
A||------6-------6-------6------6---6---------||
E||---4-----4------4-------4------4-----------||


CHORUS
	A barre		F#Min (leave high E and B strings open)

E||-----0----------------0----------------------||
B||-----0----------------0----------------------||
G||-----6----------------2----------------------||
D||-----7----------------4----------------------||
A||-----7----------------4----------------------||
E||-----5----------------2----------------------||

"I'm not the only guy..."

	octave chords (figure out rhythm)
E||-------------------------------------------------||
B||-------------------------------------------------||
G||-----6-/--8--\--4-/--6---------------------------||
D||-----x-/--x--\--x-/--x---------------------------||
A||-----4-/--6--\--2-/--4---------------------------||
E||-----0-/--0--\--0-/--0---------------------------||

"who you never notice"

back into A barre-F#min bit

BRIDGE

E (open) 	 C#Min		     F#Min  	   A
		"I can tell you're in denial get over it"

E (open)	C#min		G#min		A		B
					"I can tell you're in denial get over it"

E (open) 	 C#Min		     F#Min  	   A
		"I can tell you're in denial get over it"

E (open)	C#min		G#min		A		B
					"I can tell you're in denial get over it"

OUTRO is same as chorus
            
Submit corrections

comments powered by Disqus
↑ Back to top | Gomez Tabs for Notice. Lyrics for acoustic guitar and electric guitar. Tablatures and chords are parodies/interpretations of the original songs. You may use it for private study, scholarship, research or language learning purposes only