» » »

End Of The Day Tabs (ver.1)

Artists:  A B C D E F G H I J K L M N O P Q R S T U V W X Y Z # 

End Of The Day Tabs (ver.1)

Goldfinger
Rating:
0/5 (0 votes)

Hard to play? Try these video lessons and learn fast.
                "The End of The Day"

Written by John Feldmann
Performed by Goldfinger
As heard on Goldfinger's 3rd LP "Stomping Ground"

please send corrections if you spot any, THANKS!

Feel free to distribute this tab, but please give me credit!


------


Standard E tuning



e|----------------------------------------------------|
B|----------------------------------------------------|
G|-7-------9-9-9-9-9----------------------------------|
D|-7-7-8---9-9-9-9-9-9--------------------------------|
A|-5-7-8---7-7-7-7-7-9-10-10-10-10-10-----------------|
E|---5-6-------------7-8--8--8--8--8------------------|

e|----------------------------------------------------|
B|----------------------------------------------------|
G|-7-8--12-12-12-12-12--------------------------------|
D|-7-8--12-12-12-12-12--13-13-13-13-13----------------|
A|-5-6--10-10-10-10-10--13-13-13-13-13----------------|
E|----------------------11-11-11-11-11----------------|

Lead in to verse, first one guitar, then 2nd comes in
e|----------------------------------------------------------------------|
B|----------------------------------------------------------------------|
G|-9-9-9-9-9-9-10-10-10-10-10-10----------------------------------------|
D|-9-9-9-9-9-9-10-10-10-10-10-10-10-10-10-10-10-10--7-7-7-7-7-7---------|
A|-7-7-7-7-7-7--8--8--8--8--8--8-10-10-10-10-10-10--7-7-7-7-7-7---------|
E|--------------------------------8--8--8--8--8--8--5-5-5-5-5-5---------|

Verse, same as lead on, only palm muted at first

Chorus
"and at the end of the day"
e|----------------------------------------------------|
B|----------------------------------------------------|
G|-7-7-7-7-------------9-9-9-9------------------------|
D|-7-7-7-7--7-8-8-8-8--9-9-9-9--9---------------------|
A|-5-5-5-5--7-8-8-8-8--7-7-7-7--9-10-10-10-10---------|
E|----------5-6-6-6-6-----------7-8--8--8--8----------| one guitar (-8-7-8-7-8-9-) at the end

e|----------------------------------------------------|
B|----------------------------------------------------|
G|-7-7-7-7--8-8-8-8--12-12-12-12----------------------|
D|-7-7-7-7--8-8-8-8--12-12-12-12--13-13-13-13---------|
A|-5-5-5-5--6-6-6-6--10-10-10-10--13-13-13-13---------|
E|--------------------------------11-11-11-11---------|



e|-------------------------------------------------------------------|
B|-------------------------------------------------------------------|
G|-------------------------------------------------------------------|
D|-------------------------------------------------------------------|
A|10-10-10-10-10-10-10-10-10-10-10-10-10-(palm muted for a while)----|
E|-8--8--8--8--8--8--8--8--8--8--8--8--8-----------------------------|

"try to find what my music should be...."
e|----------------------------------------------------|
B|----------------------------------------------------|
G|-9--------------------------------------------------|
D|-9--------------------------------------------------|
A|-7--------------------------------------------------|
E|----------------------------------------------------|

"no matter what..."
e|----------------------------------------------------|
B|----------------------------------------------------|
G|-----------9-10-------------------------------------|
D|-----------9-10--xxx-7-xx-8-xx-8--------------------|
A|-----------7--8--xxx-7-xx-8-xx-8--------------------|
E|-----------------xxx-5-xx-6-xx-6--------------------|

"it's alright with me..."
e|-------------------------------------------------------------------|
B|-------------------------------------------------------------------|
G|-------------------------------------------------------------------|
D|---------------------------10-10-10-10-10-10-----------------------|
A|-7-7-7-7-7-7--8-8-8-8-8-8--8--8--8--8--8--8--10-10-10-10-10-10-----|
E|-5-5-5-5-5-5--6-6-6-6-6-6---------------------8--8--8--8--8--8-----|

basically that is it, just use a couple variations of these chords at the end....
anything missing or messed up, please send it to me!!!
            
Hard to play? Try these video lessons and learn fast. | Correct




comments powered by Disqus
↑ Back to top | Tablatures and chords are parodies/interpretations of the original songs. You may use it for private study, scholarship, research or language learning purposes only