>
 >
Tell Me 2

Tell Me 2 Guitar Tabs

Goldfinger - Tell Me 2 chords, tabs, tablatures, lyrics

Guitar lessons | Add/correct | Request | Top 50 tabs Artists:  A B C D E F G H I J K L M N O P Q R S T U V W X Y Z 0-9

Tell Me 2 Guitar Tabs – Goldfinger

CD, Sheet music, Poster

Do you like Tell Me 2? Share with your friends now
TabsTabs v2Tabs v3
Goldfinger - Tell Me

 Intro (Clean)
|-------------------------------
|-------------------------------
|-----------------------------7-
|-------------5-5-----7-7-----7-
|-5-4-2-0-----5-5-----7-7-5-5-5-
|---------3-3-3-3-5-5-5-5-------


 Verse (Distortion)
|-----------------------------------------------------------------
|-----------------------------------------------------------------
|-7-7-7-7-6-6-6-6-4-4-4-4-4-4-4-4---------------------------------
|-7-7-7-7-6-6-6-6-4-4-4-4-4-4-4-4-5-5-5-5-5-5-5-5-7-7-7-7-7-7-7-7-
|-5-5-5-5-4-4-4-4-2-2-2-2-2-2-2-2-5-5-5-5-5-5-5-5-7-7-7-7-7-7-7-7-
|---------------------------------3-3-3-3-3-3-3-3-5-5-5-5-5-5-5-5-


 Prechorus (Distortion)
|-------------------------------------------------------------
|-------------------------------------------------------------
|-----------------4-4-4-4-4-4-4-4-----------------------------
|-5-5-5-5-5-5-5-5-4-4-4-4-4-4-4-4-5-5-5-5-5-5-5-5-7---x-x-x-x-
|-5-5-5-5-5-5-5-5-2-2-2-2-2-2-2-2-5-5-5-5-5-5-5-5-7---x-x-x-x-
|-3-3-3-3-3-3-3-3-----------------3-3-3-3-3-3-3-3-5---x-x-x-x-


 Chorus (Clean)                          Guitar 1          Guitar 2
|---------------------------------------|-----------------|---------
|-8-5-7-7---8-10-7-7---8-10-7-7---8-10--|-----------------|---------
|-7-6-7-7---7-11-7-7---9--9-7-7---7-11--|-7-7-7-7-7-7-7-7-|--Pick---
|---------------------------------------|-7-7-7-7-7-7-7-7-|-Scrape--
|---------------------------------------|-5-5-5-5-5-5-5-5-|---------
|---------------------------------------|-----------------|---------


 Verse
 Guitar 1 (Distortion, palm muted)                                 Guitar 2 (Clean), 2nd time
|-----------------------------------------------------------------|-----------------------------
|-----------------------------------------------------------------|---10------7-----8------10---
|-7-7-7-7-6-6-6-6-4-4-4-4-4-4-4-4---------------------------------|-7-----7-4----7-0---7-6----7-
|-7-7-7-7-6-6-6-6-4-4-4-4-4-4-4-4-5-5-5-5-5-5-5-5-7-7-7-7-7-7-7-7-|-----------------------------
|-5-5-5-5-4-4-4-4-2-2-2-2-2-2-2-2-5-5-5-5-5-5-5-5-7-7-7-7-7-7-7-7-|-----------------------------
|---------------------------------3-3-3-3-3-3-3-3-5-5-5-5-5-5-5-5-|-----------------------------


 Prechorus
 Guitar 1 (Distortion)                              Guitar 2 (Clean)
|---------------------------------------------------|-------------------------
|---------------------------------------------------|---8------5------8----10-
|-----------------4-4-4-4-4-4-4-4-------------------|-4---7--4---6--4---7-----
|-5-5-5-5-5-5-5-5-4-4-4-4-4-4-4-4-5-5-5-5-5-5-5-5-7-|-------------------------
|-5-5-5-5-5-5-5-5-2-2-2-2-2-2-2-2-5-5-5-5-5-5-5-5-7-|-------------------------
|-3-3-3-3-3-3-3-3-----------------3-3-3-3-3-3-3-3-5-|-------------------------


 Chorus
 Guitar 1 (Distortion)             Guitar 2 (Clean, number=measure)
|---------------------------------|---------------------------------------
|---------------------------------|-8-----8--10--7-7-----8-5-----8--7-7-7-
|-------------------------7-7-7-7-|-7-----7--11--7-7-----7-6-----7--7-7-7-
|---------5-5-5-5-7-7-7-7-7-7-7-7-|---------------------------------------
|-5-4-2-0-5-5-5-5-7-7-7-7-5-5-5-5-|---------------------------------------
|---------3-3-3-3-5-5-5-5---------|1-----2--------------3-------4---------


 Bridge
 Guitar 1 (Distortion)                             1.                2.
|-------------------------------------------------|-----------------|---------------
|-------------------------------------------------|-----------------|---------------
|-4-4-4-4-4-4-4-4-----------------4-4-4-4-4-4-4-4-|-7-7-7-7---------|---------------
|-4-4-4-4-4-4-4-4-5-5-5-5-5-5-5-5-4-4-4-4-4-4-4-4-|-7-7-7-7-7-7-7-7-|-x-x-x-7--7--7-
|-2-2-2-2-2-2-2-2-5-5-5-5-5-5-5-5-2-2-2-2-2-2-2-2-|-5-5-5-5-7-7-7-7-|-x-x-x-7--7--7-
|-----------------3-3-3-3-3-3-3-3-----------------|---------5-5-5-5-|-x-x-x-5--5--5-
|
|Guitar 2 (Distortion)                             1.                2.
|-------------------------------------------------|-----------------|---------------
|-------------------------------------------------|-----------------|---------------
|-4-4-4-4-4-4-4-4-7-7-7-7-7-7-7-7-4-4-4-4-4-4-4-4-|-x-7-----x-6-----|-------9--7--6-
|-4-4-4-4-4-4-4-4-7-7-7-7-7-7-7-7-4-4-4-4-4-4-4-4-|-x-7-----x-6-----|-------x--x--x-
|-2-2-2-2-2-2-2-2-5-5-5-5-5-5-5-5-2-2-2-2-2-2-2-2-|-x-5-----x-4-----|-------7--5--4-
|-------------------------------------------------|-----------------|---------------


 Chorus
 Guitar 1 (Clean)                Guitar 2 (Clean)
|-------------------------------|----------------------------------
|-8-5-7-7---8-10-7-7---8-10-7-7-|----------------------------------
|-7-6-7-7---7-11-7-7---9--9-7-7-|----------------------------------
|-------------------------------|----------------------------------
|-------------------------------|----------------------------------
|-------------------------------|----------------------------------

Will be completed soon!





Comments


Popular Goldfinger tabs & chords
Bro Bass Tabs
Just Like Heaven 2 Bass Tabs
Superman 1 Chords
Without Me Chords
Free Me Tabs
Ghouls Night Out Tabs
Miles Away 2 Tabs
Radio 2 Tabs
San Simeon Tabs
Spokesman Tabs


Song lyrics



↑ Back to top | Tablatures and chords are parodies/interpretations of the original songs. You may use it for private study, scholarship, research or language learning purposes only
© 2014 AZChords.com Contact us | Privacy policy | DMCA | Add/correct tabs | Request tabs | Top 50 tabs