>
 >
Radio 2

Radio 2 Guitar Tabs

Goldfinger - Radio 2 chords, tabs, tablatures, lyrics

Guitar lessons | Add/correct | Request | Top 50 tabs Artists:  A B C D E F G H I J K L M N O P Q R S T U V W X Y Z 0-9

Radio 2 Guitar Tabs – Goldfinger

CD, Sheet music, Poster

Do you like Radio 2? Share with your friends now
TabsTabs v2Tabs v3
e ----------------------------------------------
b ----------------------------------------------
g -----7-6-------------------------7-6----------
d -0-------7--5-5--4--5/7--0-------7--5--7/9--7- 
a ----------------------------------------------
e ----------------------------------------------

e --------------------------------------------------------------
b -------------------------------------------------------------- 
g ----------7-6----------------------7--6--7/9--7--9/12--11--11/
d -----0--------7--5-5--4--5/7-0-------------------------------- 
a -------------------------------------------------------------- 
e --------------------------------------------------------------

Verse (also same chords played over intro) 
"It's 9 o'clock, she's late for work...." 
e ---------------------------
b ---------------------------
g -----7---------------------
d -----7--------5--------7---
a -----5--------5--------7---
e --------------3--------5---

Chorus 
"Long live my radio, it never..." 
e -----------------------------------------------------------------------
b ----------------------------------------------------------------------- 
g ------------------7------------------------------7-------------7-------
d ------5-----7-----7----7-----4----5-----7-----7------7------7----7----5
a ------5-----7-----5----4-----2----5-----7-----5------7------5----7----5
e ------3-----5---------------------3-----5------------5-----------5----3

"Long live my radio, please make..." 
e -----------------------------------------------------------------
b -----------------------------------------------------------------
g ----------------4-----------------------------7--------------7---
d ---5-----7------4-----7-------5------7-----7-------7-----7------7
a ---5-----7------2-----7-------5------7-----5-------7-----5------7
e ---3-----5------------5-------3------5-------------5------------5

Second verse just palm mute the chords from the first. 

Bridge 
"And when the static's sreaming..." 
e ------------------------------------------------------------
b ------------------------------------------------------------
g -----------------------------------------------------------6 
d --------------------------------------------------4-----4---
a -2-2-4--2-----------------------------------------5--4------
e -----------------2----2--3--2--0--2----3--3--5--3-----------

Then repeat chorus and end on 
g ---------7-6-------------------------7-6--- 
d-------0-------7--5--5--4--5/7--0-------7--5





Comments


Popular Goldfinger tabs & chords
99 Red Balloons 3 Bass Tabs
I'm Down Bass Tabs
Miles Away Bass Tabs
My Head Chords
Spokesman Chords
99 Red Balloons 100% Tabs
Anxiety 1 Tabs
Open Your Eyes Tabs
Superman (Solo) Tabs
Mable Ukulele


Song lyrics



↑ Back to top | Tablatures and chords are parodies/interpretations of the original songs. You may use it for private study, scholarship, research or language learning purposes only
© 2014 AZChords.com Contact us | Privacy policy | DMCA | Add/correct tabs | Request tabs | Top 50 tabs